I Love You

Billie Eilish

A9
12
X02200
Am
123
X02210
C
123
X32010
C7M
12
X3200X
Dm
123
XX0231
Em
12
022000
F7M
1234
1X221X
F7M(11+)
1234
133200
F7M(13)
1234
1X223X
G
123
320003
G6
1234
3X243X
G7
34
353433
Tono: G
[Intro] F7M(11+)  C7M


#1t1#   F7M(11+)
#1t2#E|-----------0-----------0------------------|
B|-----0-----------0------------------------|
G|---2-----2-----2-----2--------------------|
D|-3-----3-----3-----3----------------------|
A|------------------------------------------|
E|------------------------------------------|#/1t2##/1t1#

#2t1##2t2#E|-----------0-----------0------------------|
B|-----0-----------0------------------------|
G|---2-----2-----2-----2-----2--------------|
D|-3-----3-----3-----3-----3----------------|
A|------------------------------------------|
E|------------------------------------------|#/2t2##/2t1#

#3t1#   C7M
#3t2#E|-------0-----------0----------------------|
B|-0-----------0----------------------------|
G|-----0-----0-----0------------------------|
D|---2-----2-----2--------------------------|
A|-3----------------------------------------|
E|------------------------------------------|#/3t2##/3t1#

#4t1##4t2#E|-----------0-----------0------------------|
B|-----0-----------0------------------------|
G|---0-----0-----0-----0-----0--------------|
D|-2-----2-----2-----2-----2----------------|
A|------------------------------------------|
E|------------------------------------------|#/4t2##/4t1#

[Primeira Parte]

#5t1#[Dedilhado Padrão]

   F7M(11+)
#5t2#E|--------0-----------0---------------------|
B|-0------------0---------------------------|
G|------2-----2-----2-----------------------|
D|-3--3-----3-----3-------------------------|
A|------------------------------------------|
E|------------------------------------------|#/5t2##/5t1#

#6t1##6t2#E|-----------0-----------0------------------|
B|-----0-----------0------------------------|
G|---2-----2-----2-----2-----2--------------|
D|-3-----3-----3-----3-----3----------------|
A|------------------------------------------|
E|------------------------------------------|#/6t2##/6t1#

#7t1#   C7M
#7t2#E|-------0-----------0----------------------|
B|-0-----------0----------------------------|
G|-----0-----0-----0------------------------|
D|---2-----2-----2--------------------------|
A|-3----------------------------------------|
E|------------------------------------------|#/7t2##/7t1#

#8t1##8t2#E|-----------0-----------0------------------|
B|-----0-----------0------------------------|
G|---0-----0-----0-----0-----0--------------|
D|-2-----2-----2-----2-----2----------------|
A|------------------------------------------|
E|------------------------------------------|#/8t2##/8t1#

      F7M(11+)
It's not true
                   C7M
Tell me I've been lied to
              F7M(11+)     
Crying isn't like you
      C7M
Oh oh oh
                  F7M(11+)
What the hell did I do?
                C7M
Never been the type to
                 F7M(11+)
Let someone see right through
       C7M
Oh oh oh

[Refrão]

#9t1#   F7M     F7M(11+)  F7M     F7M(13)
#9t2#E|------------------------------------------|
B|-----------0---0-----1---1---3---3--------|
G|---2---2----------------------------------|
D|-3---3---3---3-----3---3---3---3----------|
A|------------------------------------------|
E|------------------------------------------|#/9t2##/9t1#

#10t1#   G       G6      G7      G 
#10t2#E|-----------0---0---1---1---3---3----------|
B|---3---3----------------------------------|
G|------------------------------------------|
D|------------------------------------------|
A|------------------------------------------|
E|-3---3---3---3---3---3---3---3------------|#/10t2##/10t1#

#11t1#   Am
#11t2#E|------------------------------------------|
B|-----1-----1-----1-----1------------------|
G|---2-----2-----2-----2--------------------|
D|------------------------------------------|
A|-0-----0-----0-----0----------------------|
E|------------------------------------------|#/11t2##/11t1#

#12t1#   A9
#12t2#E|------------------------------------------|
B|-----0-----0-----0-----0------------------|
G|---2-----2-----2-----2--------------------|
D|------------------------------------------|
A|-0-----0-----0-----0----------------------|
E|------------------------------------------|#/12t2##/12t1#

#13t1#   C
#13t2#E|------------------------------------------|
B|-----1-----1-----1-----1h3----------------|
G|---0-----0-----0-----0--------------------|
D|------------------------------------------|
A|-3-----3-----3-----3----------------------|
E|------------------------------------------|#/13t2##/13t1#

#14t1#   C7M
#14t2#E|------------------------------------------|
B|-----0-----0-----0-----0------------------|
G|---0-----0-----0-----0--------------------|
D|------------------------------------------|
A|-3-----3-----3-----3----------------------|
E|------------------------------------------|#/14t2##/14t1#

#15t1#   F7M
#15t2#E|------------------------------------------|
B|-----1-----1-----1-----1------------------|
G|---2-----2-----2-----2--------------------|
D|-3-----3-----3-----3----------------------|
A|------------------------------------------|
E|------------------------------------------|#/15t2##/15t1#

#16t1#   F7M(11+)
#16t2#E|------------------------------------------|
B|-----0-----0-----0-----0------------------|
G|---2-----2-----2-----2--------------------|
D|-3-----3-----3-----3----------------------|
A|------------------------------------------|
E|------------------------------------------|#/16t2##/16t1#
   
#17t1#   C7M
#17t2#E|-----------0-----------0------------------|
B|-----0-----------0------------------------|
G|---0-----0-----0-----0--------------------|
D|------------------------------------------|
A|-3-----3-----3-----3----------------------|
E|------------------------------------------|#/17t2##/17t1#

#18t1##18t2#E|-----------0------------------------------|
B|-----0-----------0------------------------|
G|---0-----0-----0--------------------------|
D|------------------------------------------|
A|-3-----3-----3----------------------------|
E|------------------------------------------|#/18t2##/18t1#

 F7M            F7M(11+)
Baby won't you take it back
     F7M            F7M(13)
Say you were tryna make me laugh
     G               G6
And nothing has to change today
     G7             G           Am  A9
You didn't mean to say "I love you"
        C  C7M
I love you  
             F7M   F7M(11+)   
And I don't want to
      C7M
Oh oh oh

[Segunda Parte]

   F7M(11+)              C7M
Up all night on another red eye
                 F7M(11+)
I wish we never learned to fly
    C7M
I I I
                 F7M(11+)
Maybe we should just try
                     C7M
To tell ourselves a good lie
                  F7M(11+)
I didn't mean to make you cry
    C7M
I I I

[Refrão]

 F7M            F7M(11+)
Baby won't you take it back
     F7M            F7M(13)
Say you were tryna make me laugh
     G               G6
And nothing has to change today
     G7             G           Am  A9
You didn't mean to say "I love you"
        C  C7M
I love you  
             F7M   F7M(11+)   
And I don't want to
      C7M
Oh oh oh

[Ponte]

#19t1#   Dm     
#19t2#E|-----------1------------1-----------------|
B|-----3------------3-----------------------|
G|---2-----2------2-----2-------------------|
D|-0-----0------0-----0---------------------|
A|------------------------------------------|
E|------------------------------------------|#/19t2##/19t1#

#20t1#   Em     
#20t2#E|-----------0------------0-----------------|
B|-----0------------0-----------------------|
G|---0-----0------0-----0-------------------|
D|------------------------------------------|
A|------------------------------------------|
E|-0-----0------0-----0---------------------|#/20t2##/20t1#

#21t1#   F7M 
#21t2#E|------------0-----------0-----------------|
B|------1-----------1-----------------------|
G|----2-----2-----2-----2-------------------|
D|--3-----3-----3-----3---------------------|
A|------------------------------------------|
E|------------------------------------------|#/21t2##/21t1#

#22t1#  F7M(11+) 
#22t2#E|------------0-----------------------------|
B|------0-----------0-----------------------|
G|----2-----2-----2-------------------------|
D|--3-----3-----3---------------------------|
A|------------------------------------------|
E|------------------------------------------|#/22t2##/22t1#

      Dm
The smile that you gave me
       Em                 F7M  F7M(11+)
Even when you felt like dying

[Refrão]

    F7M          F7M(11+)
We fall apart as it gets dark
    F7M(13)          F7M      
I'm in your arms in central park
         G                 G6
There's nothing you could do or say
   G7               G           Am   A9
I can't escape the way, I love you
         C      C7M
I don't want to
       F7M     F7M(11+)
But I love you
      C7M
Oh oh oh
      F7M(11+)
Oh oh oh
      C7M
Oh oh oh
      F7M(11+)
Oh oh oh
      C7M
Oh oh oh
Composición: Billie Eilish / Finneas O'ConnellColaboración y revisión: Thiago AlmeidaFernanda IchiyJoel SilvaBianca Noronhay más 2