Cm
234
X35543
D
123
XX0232
D7
123
XX0212
Gm
34
355333
Tono: G
[Intro] Gm  Cm  D7

Riff com afinação drop D

#1t1##1t2#E|-----------------------------------------|
B|-----------------------------------------|
G|-----------------------------------------|
D|-----------------------------------------|
A|-----------------------------------------|
E|-5-5-8-5-5-5-5-8-5-3-5-5-8-5-5-5-5-8-5-3-|#/1t2##/1t1#

#2t1##2t2#E|-----------------------------------------|
B|-----------------------------------------|
G|-------------------0---------------------|
D|-----1---------1-----0-0-3-0-------------|
A|-3-3---3-3-3-3---3-----------------------|
E|-----------------------------0-0-0-------|#/2t2##/2t1#

Gm
White shirt now red, my bloody nose
Sleepin', you're on your tippy-toes
Cm
Creepin' around like no one know
D7
Think you're so criminal
Gm
Bruises on both my knees for you
Don't say thank you or please
Cm
I do what I want when I'm wanting to
D7
My soul so cynical
Gm
So you're a tough guy
Like it really rough guy
Just can't get enough guy         
Chest always so puffed guy
Cm
I'm that bad type
Make your mama sad type
                          D7 
Make your girlfriend mad tight
D7                  
Might seduce your dad type
I'm the bad guy, duh
 
#3t1##3t2#E|-------------------------------|
B|-------------------------------|
G|---7--6h7p6---7----------------| (3X)
D|-5---5-----8-5-----------------|
A|-------------------------------|
E|-------------------------------|#/3t2##/3t1#

#4t1##4t2#E|-------------------------------|
B|-------------------------------|
G|---7--6h7p6--------------------|
D|-5---5-----8-------------------|
A|-------------------------------|
E|-------------------------------|#/4t2##/4t1#

#5t1##5t2#E|-------------------------------|
B|---8---7h8p7-----8-------------|
G|-5---5-------8-5---------------|
D|-------------------------------|
A|-------------------------------|
E|-------------------------------|#/5t2##/5t1#

#6t1##6t2#E|-------------------------------|
B|---8---7h8p7----10-7-----------|
G|-5---5-------8-7-----7--5------|
D|-------------------------------|
A|-------------------------------|
E|-------------------------------|#/6t2##/6t1#

Gm        Cm        D7
    I'm the bad guy

Gm
I like it when you take control
Gm
Even if you know that you don't
Gm                              Cm
Own me, I'll let you play the role
I'll be your animal
Gm
My mommy likes to sing along with me
Gm
But she won't sing this song
Cm
If she reads all the lyrics
        
She'll pity the men I know

Gm
So you're a tough guy
Like it really rough guy
Just can't get enough guy
Chest always so puffed guy
Cm
I'm that bad type

Make your mama sad type
                          D7 
Make your girlfriend mad tight
D                    
Might seduce your dad type
I'm the bad guy, duh

Gm        Cm       D7
    I'm the bad guy,  duh 
Gm                   Cm     D7
    I'm only good at bein' bad, bad

Gm
I like when you get mad
I guess I'm pretty glad that you're alone
You said she's scared of me?

I mean, I don't see what she sees
But maybe it's 'cause I'm wearing your cologne
Gm
I'm a bad guy
I'm a bad guy
Bad guy, bad guy
I'm a bad
Composición: Billie Eilish / Finneas O'ConnellColaboración y revisión: Kelvin KennedyAna FaggianiRosicler Nogueira
videoclase BAD GUY (aula de violão completa)