Tono: G
#1t1#Intro // Riff (repete a música inteira) 
#1t2#E|---------------------------------------------------------------------------|
B|-------------9/4---------4/5-----------------------------------------------|
G|---------------------------------------------------------------------------|
D|----7----------------------------------------------------------------------|
A|---------------------------------------------------------------------------|
E|---------------------------------------------------------------------------|#/1t2##/1t1#
                                                                                  
#2t1##2t2#E|---------------------------------------------------------------------------|
B|--------------9-7----------------------------------------------------------|
G|--------------9-8----------------------------------------------------------|
D|----7----------------------------------------------------------------------|
A|---------------------------------------------------------------------------|
E|---------------------------------------------------------------------------|#/2t2##/2t1#
Composición: Colaboración y revisión: Paulo Paulo