Plastic Tramp

Arctic Monkeys

Tono: G
#1t1##1t2#E |------9-9-9-8-9-12-12-12-12 / ------9-9-9-8-9-12-12-12-12-:
B |7-7-10--------------------- / 6-6-10----------------------:
G |--------------------------- / ----------------------------:
D |--------------------------- / ----------------------------:
A |--------------------------- / ----------------------------:
E |--------------------------- / ----------------------------:#/1t2##/1t1#

#2t1##2t2#E |14-14-12-9-------12-12-12-- / 14-14-12-8--12-------------:
B |--------------------------- / ---------------------------:
G |--------------------------- / ---------------------------:
D |--------------------------- / ---------------------------:
A |--------------------------- / ---------------------------:
E |--------------------------- / ---------------------------:#/2t2##/2t1#

#3t1##3t2#E |----------------------- / -------------------------------:
B |----------------------- / -------------------------------:
G |-----------9------11--- / -------------------------------:
D |11--------------------- / 10-----------------------------:
A |----------------------- / -------------------------------:
E |----------------------- / -------------------------------:#/3t2##/3t1#

#4t1##4t2#E |----------------------- / -------------------------------:
B |----------------------- / -------------------------------:
G |-----------9------11--- / -------------------------------:
D |11--------------------- / 10-----------------------------:
A |----------------------- / -------------------------------:
E |----------------------- / -------------------------------:#/4t2##/4t1#

#5t1##5t2#G |--------------------------- / ---------------------------:
D |--------------------------- / ---------------------------:
A |---4-----4-------4-----4--- / ---3-----3-------3-----3---:
E |2------2------2------2----- / 2------2------2------2-----:#/5t2##/5t1#

#6t1##6t2#G |--------------------------- / ---------------------------:
D |--------------------------- / ---------------------------:
A |---4-----4-------4-----4--- / ---3-----3-------3-----3---:
E |2------2------2------2----- / 2------2------2------2-----:#/6t2##/6t1#

#7t1##7t2#G |--------------------------- / ---------------------------:
D |--------------------------- / ---------------------------:
A |---4-----4-------4-----4--- / ---3-----3-------3-----3---:
E |2------2------2------2----- / 2------2------2------2-----:#/7t2##/7t1#

#8t1##8t2#G |--------------------------- / ---------------------------:
D |--------------------------- / ---------------------------:
A |---4-----4-------4-----4--- / ---3-----3-------3-----3---:
E |2------2------2------2----- / 2------2------2------2-----:#/8t2##/8t1#

#9t1##9t2#E |-------------------------- / ----------------------------:
B |7------------------------- / 10--------------------------:
G |-------------------------- / ----------------------------:
D |-------------------------- / ----------------------------:
A |-------------------------- / ----------------------------:
E |-------------------------- / ----------------------------:#/9t2##/9t1#

#10t1##10t2#E |9------------------------- / 12--------------------------:
B |-------------------------- / ----------------------------:
G |-------------------------- / ----------------------------:
D |-------------------------- / ----------------------------:
A |-------------------------- / ----------------------------:
E |-------------------------- / ----------------------------:#/10t2##/10t1#

#11t1##11t2#E |----------------------- / -------------------------------:
B |----------------------- / -------------------------------:
G |-----------9------11--- / -------------------------------:
D |11--------------------- / 10-----------------------------:
A |----------------------- / -------------------------------:
E |----------------------- / -------------------------------:#/11t2##/11t1#

#12t1##12t2#E |----------------------- / -------------------------------:
B |----------------------- / -------------------------------:
G |-----------9------11--- / -------------------------------:
D |11--------------------- / 10-----------------------------:
A |----------------------- / -------------------------------:
E |----------------------- / -------------------------------:#/12t2##/12t1#

#13t1##13t2#G |--------------------------------:
D |--------------------------------:
A |----------------------------3-4-:
E |2-2-2-2-2-2-2-2-2-2-2-2-2-5-----:#/13t2##/13t1#

#14t1##14t2#E |----------------------------------:
B |7-7-7-7-7-7-7-7-7-7-7-7-7-7-7-7-7-:
G |----------------------------------:
D |----------------------------------:
A |----------------------------------:
E |----------------------------------:#/14t2##/14t1#

#15t1##15t2#E |---------------------------------------------------:
B |10-10-10-10-10-10-10-10-10-10-10-10-10-10-10-10-10-:
G |---------------------------------------------------:
D |---------------------------------------------------:
A |---------------------------------------------------:
E |---------------------------------------------------:#/15t2##/15t1#


#16t1##16t2#E |9-9-9-9-9-9-9-9-9-9-9-9-9-9-9-9-:
B |--------------------------------:
G |--------------------------------:
D |--------------------------------:
A |--------------------------------:
E |--------------------------------:#/16t2##/16t1#

#17t1##17t2#E |12-12-12-12-12-12-12-12-12-12-12-12-12-12-12-17-:
B |------------------------------------------------:
G |------------------------------------------------:
D |------------------------------------------------:
A |------------------------------------------------:
E |------------------------------------------------:#/17t2##/17t1#

#18t1##18t2#E |14------12------9------12------:
B |-------------------------------:
G |-------------------------------:
D |-------------------------------:
A |-------------------------------:
E |-------------------------------:#/18t2##/18t1#

#19t1##19t2#E |14------12------8------12------:
B |-------------------------------:
G |-------------------------------:
D |-------------------------------:
A |-------------------------------:
E |-------------------------------:#/19t2##/19t1#

#20t1##20t2#E |14------12------9------12------:
B |-------------------------------:
G |-------------------------------:
D |-------------------------------:
A |-------------------------------:
E |-------------------------------:#/20t2##/20t1#

#21t1##21t2#E |14------12------8------12------:
B |-------------------------------:
G |-------------------------------:
D |-------------------------------:
A |-------------------------------:
E |-------------------------------:#/21t2##/21t1#

#22t1##22t2#E |--------------- / E:----------------:
B |--------------- / B ----------------:
G |--------------- / G ----------------:
 D |4-4-4-4-4-4-4-4 / D 4-4-4-4-4-4-4-4-:
A |4-4-4-4-4-4-4-4 / A 3-3-3-3-3-3-3-3-:
E |2-2-2-2-2-2-2-2 / E 2-2-2-2-2-2-2-2-:#/22t2##/22t1#

#23t1##23t2#E |--------------------------------:
B |--------------------------------:
G |--------------------------------:
D |4-4-4-4-4-4-4-4-4-4-4-4-4-4-4-4-:
A |4-4-4-4-4-4-4-4-4-4-4-4-4-4-4-4-:
E |2-2-2-2-2-2-2-2-2-2-2-2-2-2-2-2-:#/23t2##/23t1#

#24t1##24t2#E |--------------------------------:
B |--------------------------------:
G |--------------------------------:
D |4-4-4-4-4-4-4-4-4-4-4-4-4-4-4-4-:
A |3-3-3-3-3-3-3-3-3-3-3-3-3-3-3-3-:
E |2-2-2-2-2-2-2-2-2-2-2-2-2-2-2-2-:#/24t2##/24t1#

#25t1##25t2#G |-------------------------------:
D |-------------------------------:
A |4-4----------4-4---------------:
E |-------2-5-2--------0-2-0-2-5--:#/25t2##/25t1#

#26t1##26t2#G |-------------------------------:
D |-------------------------------:
A |3-3----------3-3---------------:
E |-------2-5-2--------0-2-0-2-5--:#/26t2##/26t1#

#27t1##27t2#G |-------------------------------:
D |-------------------------------:
A |4-4----------4-4---------------:
E |-------2-5-2--------0-2-0-2-5--:#/27t2##/27t1#

#28t1##28t2#G |-------------------------------:
D |-------------------------------:
A |3-3----------3-3---------------:
E |-------2-5-2-------------------:#/28t2##/28t1#

#29t1##29t2#G |--------------------------- / ---------------------------:
D |--------------------------- / ---------------------------:
A |---4-----4-------4-----4--- / ---3-----3-------3-----3---:
E |2------2------2------2----- / 2------2------2------2-----:#/29t2##/29t1#

#30t1##30t2#E |14--12--9----------------------:
B |-------------------------------:
G |-------------------------------:
D |-------------------------------:
A |-------------------------------:
E |-------------------------------:#/30t2##/30t1#

#31t1##31t2#E |14--12--8----------------------:
B |-------------------------------:
G |-------------------------------:
D |-------------------------------:
A |-------------------------------:
E |-------------------------------:#/31t2##/31t1#

#32t1##32t2#E |----------------------- / -------------------------------:
B |----------------------- / -------------------------------:
G |-----------9------11--- / -------------------------------:
D |11--------------------- / 10-----------------------------:
A |----------------------- / -------------------------------:
E |----------------------- / -------------------------------:#/32t2##/32t1#

#33t1##33t2#E |----------------------- / -------------------------------:
B |----------------------- / -------------------------------:
G |-----------9------11--- / -------------------------------:
D |11--------------------- / 10-----------------------------:
A |----------------------- / -------------------------------:
E |----------------------- / -------------------------------:#/33t2##/33t1#

#34t1##34t2#G |---------------------- / ---------------------:
D |---------------------- / ---------------------:
A |4---------------4-4-4- / ---------------------:
E |---------------------- / 2--------------2-2-2-:#/34t2##/34t1#

#35t1##35t2#G |---------------------- / --------------------:
D |---------------------- / --------------------:
A |----------2----------- / ----------2---------:
E |5----4---------------- / 5----4--------------:#/35t2##/35t1#

#36t1##36t2#E |---------------------- / ---------------------:
B |---------------------- / ---------------------:
G |6---------------6-6-6- / ---------------------:
D |6---------------6-6-6- / 4--------------4-4-4-:
A |4---------------4-4-4- / 4--------------4-4-4-:
E |---------------------- / 2--------------2-2-2-:#/36t2##/36t1#

#37t1##37t2#E |---------------------- / --------------------:
B |---------------------- / --------------------:
G |---------------------- / --------------------:
D |7----6----9----------- / 7----6----9---------:
A |7----6----9----------- / 7----6----9---------:
E |5----4----7----------- / 5----4----7---------:#/37t2##/37t1#

#38t1##38t2#E |---------------------- / --------------------:
B |---------------------- / --------------------:
G |6--------------------- / --------------------:
D |6--------------------- / 4-------------------:
A |4--------------------- / 4-------------------:
E |---------------------- / 2-------------------:#/38t2##/38t1#

#39t1##39t2#E |---------------------- / --------------------:
B |---------------------- / --------------------:
G |---------------------- / --------------------:
D |7----6----9----------- / 7----6----9---------:
A |7----6----9----------- / 7----6----9---------:
E |5----4----7----------- / 5----4----7---------:#/39t2##/39t1#

#40t1##40t2#G |--------------------------------:
D |--------------------------------:
A |----------------------------3-4-:
E |------------------------0-2-----:#/40t2##/40t1#
#41t1#                                    bass
#41t2#G |--------------------------------:
D |--------------------------------:
A |----------------------------3-4-:
E |2-2-2-2-2-2-2-2-2-2-2-2-0-2-----:#/41t2##/41t1#

#42t1##42t2#E |--------------- / E:----------------:
B |--------------- / B ----------------:
G |--------------- / G ----------------:
 D |4-4-4-4-4-4-4-4 / D 4-4-4-4-4-4-4-4-:
A |4-4-4-4-4-4-4-4 / A 3-3-3-3-3-3-3-3-:
E |2-2-2-2-2-2-2-2 / E 2-2-2-2-2-2-2-2-:#/42t2##/42t1#

#43t1##43t2#E |14-12-9-12-14-12-8-12-:
B |----------------------:
G |----------------------:
D |----------------------:
A |----------------------:
E |----------------------:#/43t2##/43t1#

#44t1##44t2#E |--------------- / E:----------------:
B |--------------- / B ----------------:
G |--------------- / G ----------------:
 D |4-4-4-4-4-4-4-4 / D 4-4-4-4-4-4-4-4-:
A |4-4-4-4-4-4-4-4 / A 3-3-3-3-3-3-3-3-:
E |2-2-2-2-2-2-2-2 / E 2-2-2-2-2-2-2-2-:#/44t2##/44t1#

Composición: Colaboración y revisión: washington moreira