Fluorescent Adolescent

Arctic Monkeys

A7M
123
X02120
B
234
X24442
C#m
234
X46654
E
123
022100
F#m
34
244222
G#m
34
466444
Tono: G
[Intro] E  C#m  F#m  B
        E  C#m  F#m  B

#1t1##1t2#E|-----------------------------------------------------|
B|-----------------------------------------------------|
G|-----------------------------------------------------|
D|-----------------------------------------------------|
A|------------2-4----4--2------------4-2----2-2--------|
E|-0----0-2-4--------------2----2--2------------4-2----|#/1t2##/1t1#

#2t1##2t2#E|-----------------------------------------------------|
B|-----------------------------------------------------|
G|-----------------------------------------------------|
D|-----------------------------------------------------|
A|------------2-4----4--2------------4-2----2-2--------|
E|-0----0-2-4--------------2----2--2-------------------|#/2t2##/2t1#

[Primeira Parte]

                            E
You used to get it in your fishnets
                             C#m
Now you only get it in your night dress
                          F#m
Discarded all the naughty     

Nights for niceness
                          B
Landed in a very common crisis

#3t1##3t2#E|-----------------------------------------------------|
B|-----------------------------------------------------|
G|-----------------------------------------------------|
D|-----------------------------------------------------|
A|------------2-4----4--2------------4-2----2----------|
E|-0----0-2-4--------------2----2--2-------------------|#/3t2##/3t1#

                             E
Everything's in order in a black hole
                       
Nothing seems as pretty
        C#m
As the past though
                              F#m
That Bloody Mary's lacking a Tabasco
                                B
Remember when you used to be a rascal?

[Segunda Parte]

                      F#m
Oh, that boy's a slag
                      B
The best you ever had
                      F#m
The best you ever had
             B               F#m
Is just a memory and those dreams

                 B
But as daft as they seem
             F#m
As daft as they seem
                    A7M
My love, when you dreamed them up

#4t1##4t2#E|----------12-----9----7------14-----------|
B|-------12--------9----7--12--14-----------|
G|----13-----------9----8--13--14-----------|
D|-14-------------11----9------16-----------|
A|------------------------------------------|
E|------------------------------------------|#/4t2##/4t1#

#5t1##5t2#E|----------16------------------------------|
B|----16-19---------------------------------|
G|-16---------------------------------------|
D|------------------------------------------|
A|------------------------------------------|
E|------------------------------------------|#/5t2##/5t1#

#6t1##6t2#E|----------12-----9----7------14-----------|
B|-------12--------9----7--12--14-----------|
G|----13-----------9----8--13--14-----------|
D|-14-------------11----9------16-----------|
A|------------------------------------------|
E|------------------------------------------|#/6t2##/6t1#

[Terceira Parte]
                
Flicking through 
                  E
A little book of sex tips
             
Remember when 
                    C#m
The boys were all electric?
                  
Now when she tells 
             F#m
She's gonna get it
            
I'm guessing 
                        B
That she'd rather just forget it
                              E
Clinging to not getting sentimental
                     
Said she wasn't going 
         C#m
But she went still
                               F#m
Likes her gentlemen to not be gentle
                                  
Was it a megadobber or a betting pencil

[Quarta Parte]

                   F#m
Oh, that boy's a slag
                   B
The best you ever had
                   F#m
The best you ever had
           B                 F#m
Is just a memory and those dreams

                         B
But as daft as they seem
             F#m
As daft as they seem
                   B
My love when you dream them up

#7t1##7t2#E|-------14--------------------------------------------|
B|----16----14----16-----------------------------------|
G|-16----------------16----13--------------------------| (3x)
D|-----------------------------------------------------|
A|-----------------------------------------------------|
E|-----------------------------------------------------|#/7t2##/7t1#

#8t1##8t2#E|-------14--------------------------------------------|
B|----16----14----16-----------------------------------|
G|-16----------------16----13----11--------------------|
D|-----------------------------------------------------|
A|-----------------------------------------------------|
E|-----------------------------------------------------|#/8t2##/8t1#

[Ponte]

      G#m
Oh, flo

Where did you go?

Where did you go?
                  F#m
Where did you go?

( E  C#m  F#m  B )

#9t1##9t2#E|-----------------------------------------------------|
B|-----------------------------------------------------|
G|-----------------------------------------------------|
D|-----------------------------------------------------|
A|------------2-4----4--2------------4-2----2-2--------|
E|-0----0-2-4--------------2----2--2------------4-2----|#/9t2##/9t1#

#10t1##10t2#E|-----------------------------------------------------|
B|-----------------------------------------------------|
G|-----------------------------------------------------|
D|-----------------------------------------------------|
A|------------2-4----4--2------------4-2----2----------|
E|-0----0-2-4--------------2----2--2-------------------|#/10t2##/10t1#

#11t1##11t2#E|-----------------------------------------------------|
B|-----------------------------------------------------|
G|-----------------------------------------------------|
D|-----------------------------------------------------|
A|------------2-4----4--2------------4-2---------------|
E|-0----0-2-4--------------2----2--2-------------------|#/11t2##/11t1#

#12t1##12t2#E|-----------------------------------------------------|
B|-----------------------------------------------------|
G|-----------------------------------------------------|
D|-----------------------------------------------------|
A|-2-2-2-2-2-2-2/6-6-6-6-6-6-6h7-6-4-7-----------------|
E|-----------------------------------------------------|#/12t2##/12t1#

E         C#m
  Falling about
         F#m                        B
You took     a left off Last Laugh Lane
E                       C#m
  You were just sounded it out
     F#m                   B     
But you're not coming back again

(Guitarra 1)

#13t1##13t2#E|-----------------------------------------------------|
B|-----------------------------------------------------|
G|-----------------------------------------------------|
D|-----------------------------------------------------|
A|------------2-4----2---------------4-2----2----------|
E|-0----0-2-4-----------4--2----2--2-------------------|#/13t2##/13t1#

(Guitarra 2)

#14t1##14t2#E|-----------------------------------------------------|
B|-----------------------------------------------------|
G|-9-9-9-9-9-9-9-9-9-9-9-9-9-9-8-8---------------------|
D|-----------------------------------------------------|
A|-7-7-7-7-7-7-7-7-7-7-7-7-7-7-6-6---------------------|
E|-----------------------------------------------------|#/14t2##/14t1#

#15t1##15t2#E|-----------------------------------------------------|
B|-----------------------------------------------------|
G|-9-9-9-9-9-9-9-9-8-8-8-8-8-8-8-8---------------------|
D|-----------------------------------------------------|
A|-7-7-7-7-7-7-7-7-6-6-6-6-6-6-6-6---------------------|
E|-----------------------------------------------------|#/15t2##/15t1#

[Quinta Parte]

E                C#m
  You’re falling about
     F#m                        B
You took a left off Last Laugh Lane
              E         C#m
You were just   sounded it out
     F#m                     B
But you're not coming back again

[Sexta Parte]

E                C#m
  You’re falling about
     F#m                        B
You took a left off Last Laugh Lane
              E         C#m
You were just   sounded it out
     F#m                     B
But you're not coming back again

                            E
You used to get it in your fishnets
                             C#m
Now you only get it in your night dress
                         
Discarded all the naughty 
 F#m
Nights for niceness
                          B
Landed in a very common crisis
                             E
Everything's in order in a black hole
                        
Nothing seems as pretty 
        C#m
As the past though
                               F#m
That Bloody Mary's lacking in Tabasco
                                B
Remember when you used to be a rascal? 

( C#m )
Composición: Arctic MonkeysColaboración y revisión: Gabriel SilvaVinicius NascimentoVinícius DiasAlexandre Oliveiray más 26
videoclase Fluorescent Adolescent (aula de guitarra)