Bleeding Heart

Angra

Ab
234
431114
Bb
234
X13331
Bb9
34
X13311
C9
34
X35533
Cm
234
X35543
Dm
123
XX0231
Eb
234
X65343
Eb9
34
X68866
F
234
133211
F9
234
135211
Gm
34
355333
Tono: G
Intro: Lick 1


Lick 1 – Parte 1 de 2 

E|--------------------------------
B|-11------10------8------6-----4-
G|----0-------0------0------0-----
D|--------------------------------
A|-10---10------10--------6---6---
E|--------------------------------

E|--------------------| 
B|----3---------------| 
G|0-----0-------------| 
D|--------------------| 
A|--6-----------------| 
E|--------------------| 



Lick 1 – Parte 2 de 2 

E|-------------------------------
B|-3-----1-----3------8-----6----
G|---0-----0-----0------0-----0--
D|-------------------------------
A|-3---3-----3--------8---8-----8
E|-------------------------------

E|---------------------| 
B|8--------------------| 
G|---0-----------------| 
D|---------------------| 
A|---------------------| 
E|---------------------| 



Primeira Parte:

Eb9
    Now I know that the end comes
C9
   You knew since the beginning
Eb9                            (lick
 2)
    Didn't want to believe it's true

You are alone again
                      (lick 1)
My soul will be with you

Eb9
    Why is the clock even running
C9
   If my world isn't turning
Eb9                            (lick
 2)
    Hear your voice in the doorway 
wind

You are alone again I'm only waiting


Dedilhado Primeira Parte:


   Eb9      C9       Eb9      C9
E|-------6--------3--------6------
B|-------6--------3--------6------
G|-----8--------5--------8--------
D|---8--------5--------8--------5-
A|-6--------3--------6--------3---
E|--------------------------------

E|--3-------| 
B|--3-------| 
G|5---------| 
D|----------| 
A|----------| 
E|----------| 




Lick 2 – Parte 1 de 2

E|--------------------------------
B|-11------10------11------10-----
G|----0-------0-------0-------0---
D|--------------------------------
A|-10---10------10---------8----8-
E|--------------------------------

E|--------------------| 
B|8-----10------------| 
G|--0------0----------| 
D|--------------------| 
A|----0---------------| 
E|--------------------| 



Lick 2 – Parte 2 de 2

E|-------------------------------
B|-8-----6-----8------10-----8---
G|---0-----0-----0-------0-----0-
D|-------------------------------
A|-6---6-----6--------8----8-----
E|-------------------------------

E|---------------------| 
B|--10-----------------| 
G|-----0---------------| 
D|---------------------| 
A|8--------------------| 
E|---------------------| 


Refrão:

Bb                Cm
   You tear into pieces my heart
Gm
   Before you leave with no 
repentance
Eb             Bb
   I cried to you
Ab My tears turning into blood F I'm ready to surrender Bb Cm You say that I take it too hard Gm And all I ask is comprehension Eb Bb Bring back to you Ab A piece of my broken heart F Eb9 C9 I'm ready to surrender Segunda Parte: Eb9 I remember the moments C9 Life was short for the romance Eb9 (lick 2) Like a rose it will fade away I'm leaving everything Eb9 No regrets, war is over C9 The return of a soldier Eb9 (lick 2) Put my hands on my bleeding heart I'm leaving all behind No longer waiting Refrão: Bb Cm You tear into pieces my heart Gm Before you leave with no repentance Eb Bb I cried to you Ab My tears turning into blood F I'm ready to surrender Bb Cm You say that I take it too hard Gm And all I ask is comprehension Eb Bb Bring back to you Ab A piece of my broken heart F Eb Cm Dm I'm ready to surrender Eb F9 I've waited for so long ( Gm F Eb Dm Cm Bb Ab F ) Refrão: Bb Cm You tear into pieces my heart Gm Before you leave with no repentance Eb Bb I cried to you Ab My tears turning into blood F I'm ready to surrender Bb Cm You say that I take it too hard Gm And all I ask is comprehension Eb Bb Bring back to you Ab A piece of my broken heart F Eb9 C9 I'm ready to surrender Bb9 I'm ready to surrender
Composición: Edu Falaschi / Kiko Loureiro / Rafael BittencourtColaboración y revisión: Caroline LeroyRodrigo M.
videoclase #tocaAngra | Bleeding Heart (aula de violão)

Utilizamos cookies e outras tecnologias semelhantes para melhorar e personalizar sua experiência de uso. Ao navegar nos produtos, você concorda com as condições descritas em nossa Política de Privacidade.