Angels and Demons

Angra

Tono: G
intro
 [0:00]

E-----------------------|-------
B--14----14----14-15-14-|--12---
G-----12----12----------|-------
D-----------------------|-------
A-----------------------|-------
E-----------------------|-------

E|---------------|-----------------------|-------------------| 
B|12---------12--|--14----14----14-15-14-|--12--12-------12--| 
G|-------12------|-----12----12----------|------------12-----| 
D|---12----------|-----------------------|---------12--------| 
A|---------------|-----------------------|-------------------| 
E|---------------|-----------------------|-------------------| 





e-----------------------|---------
B--16----16----16-17-16-|--14--14-
G-----14----14----------|---------
D-----------------------|---------
A-----------------------|---------
E-----------------------|---------

e|-------------|-------------------
B|-------14----|-16----16----16-17-
G|----14-------|----14----14-------
D|-14----------|-------------------
A|-------------|-------------------
E|-------------|-------------------

e|----|-------------------| 
B|16--|-14--14-------14---| 
G|----|-----------14------| 
D|----|--------14---------| 
A|----|-------------------| 
E|----|-------------------| 


 [0:08]
Kiko Loureiro --guitarra 1

e----17--19--15~~------|--17--19--
B----------------------|----------
G----------------------|----------
D----------------------|----------
A----------------------|----------
E----------------------|----------

e|19b----------|--19--17--15--------
B|-------------|--------------------
G|-------------|--------------------
D|-------------|--------------------
A|-------------|--------------------
E|-------------|--------------------



Rafael Bittencourt --guitarra 2

e---14--15-------------|--14--15--
B-----------17~~-------|----------
G----------------------|----------
D----------------------|----------
A----------------------|----------
E----------------------|----------

e|15b----------|--15--14--12--------
B|-------------|--------------------
G|-------------|--------------------
D|-------------|--------------------
A|-------------|--------------------
E|-------------|--------------------



E-----------------------|-------
B--14----14----14-15-14-|--12---
G-----12----12----------|-------
D-----------------------|-------
A-----------------------|-------
E-----------------------|-------

E|----15-14-12----------|-----------
B|12-----------15-13-12-|--14----14-
G|----------------------|-----12----
D|----------------------|-----------
A|----------------------|-----------
E|----------------------|-----------

------------|---------17-16-14----
---14-15-14-|--12--12----------17-
12----------|---------------------
------------|---------------------
------------|---------------------
------------|---------------------

------| 
15-14-| 
------| 
------| 
------| 
------| 





e-----------------------|---------
B--16----16----16-17-16-|--14--14-
G-----14----14----------|---------
D-----------------------|---------
A-----------------------|---------
E-----------------------|---------

e|-16\11/16----|--11---11----11-12-
B|-------------|----10----10-------
G|-------------|-------------------
D|-------------|-------------------
A|-------------|-------------------
E|-------------|-------------------

e|11--|--9----9---------9-| 
B|----|----10---10---10---| 
G|----|------------9------| 
D|----|-------------------| 
A|----|-------------------| 
E|----|-------------------| 


[0:21]
Kiko Loureiro

e--16----|--13/--16----|--14b-
B--------|-------------|------
G--------|-------------|------
D--------|-------------|------
A--------|-------------|------
E--------|-------------|------

e|-----12--|-/16--|--14--12---|-14---19----|---19~~~~----------| 
B|16~~-----|------|-----------|------------|-------------------| 
G|---------|------|-----------|------------|-------------------| 
D|---------|------|-----------|------------|-------------------| 
A|---------|------|-----------|------------|-------------------| 
E|---------|------|-----------|------------|-------------------| 





Rafael Bittencourt

e--------|-------------|------
B--18----|-/14--18-----|--16b-
G--------|-------------|------
D--------|-------------|------
A--------|-------------|------
E--------|-------------|------

e|---------|------|-----------|------------|-------------------| 
B|-----14--|-/17--|--16--14---|-16---19----|---19~~~~----------| 
G|17~~-----|------|-----------|------------|-------------------| 
D|---------|------|-----------|------------|-------------------| 
A|---------|------|-----------|------------|-------------------| 
E|---------|------|-----------|------------|-------------------| 




E-----------------------|-------
B--14----14----14-15-14-|--12---
G-----12----12----------|-------
D-----------------------|-------
A-----------------------|-------
E-----------------------|-------

E|----15-14-12----------|-----------
B|12-----------15-13-12-|--16----16-
G|----------------------|-----14----
D|----------------------|-----------
A|----------------------|-----------
E|----------------------|-----------

------------|---------------------------| 
---16-17-16-|--14--14--------14---------| 
14----------|-------------14------------| 
------------|----------14---------------| 
------------|---------------------------| 
------------|---------------------------| 




e--10------------|-12-------------
B-----12---------|----14----------
G--------12------|-------14-------
D----------------|----------------
A----------------|----------------
E----------------|----------------

e||-14-12-10--------|-15-14-12----
B||----------14-12--|----------15-
G||-----------------|-------------
D||-----------------|-------------
A||-----------------|-------------
E||-----------------|-------------

e|---17-16-14-----------------|----| 
B|14----------17-16-14--------|----| 
G|---------------------16-14--|-13-| 
D|----------------------------|----| 
A|----------------------------|----| 
E|----------------------------|----| 



verse


e-----------------------|--------
B---5--5-----------5----|--------
G---6--6-----------6----|--------
D---6--6-----------6----|--------
A--------4--4--4--------|--4--4--
E-----------------------|--------

e|--------------------|-------------------------------|----------------------| 
B|---5----------------|---4--4-----------4------------|---2--2------------2--| 
G|---6----------------|---4--4-----------4------------|---2--2------------2--| 
D|---6----------------|---4--4-----------4------------|---2--2------------2--| 
A|4-------4--4--4--4--|---------2--2--2-----2--2--2--2|----------0--0--0-----| 
E|--------------------|-------------------------------|----------------------| 




e----------------------|----------
B-----------2----------|----------
G-----------2----------|----------
D-----------2----------|----------
A--0--0--0----0--0--0--|----------
E----------------------|--2----4--

e|-----|-------------|-------|------
B|-----|-------------|--5~~--|---4--
G|-----|-------------|--6~~--|------
D|-----|---------2---|--6~~--|------
A|-----|--2---4------|--4~~--|------
E|--5--|-------------|-------|------

e|-----------------|--------|-------
B|-----------------|--------|-------
G|-3---------------|--------|-------
D|-----------------|--6-----|--6----
A|-----------------|--6-----|--6----
E|-----------------|--4-----|--4----




e-----------------------|--------
B---5--5-----------5----|--------
G---6--6-----------6----|--------
D---6--6-----------6----|--------
A--------4--4--4--------|--4--4--
E-----------------------|--------

e|--------------------|-------------------------------|----------------------| 
B|---5----------------|---4--4-----------4------------|---2--2------------2--| 
G|---6----------------|---4--4-----------4------------|---2--2------------2--| 
D|---6----------------|---4--4-----------4------------|---2--2------------2--| 
A|4-------4--4--4--4--|---------2--2--2-----2--2--2--2|----------0--0--0-----| 
E|--------------------|-------------------------------|----------------------| 




e----------------------|----------
B-----------2----------|----------
G-----------2----------|----------
D-----------2----------|----------
A--0--0--0----0--0--0--|----------
E----------------------|--2----4--

e|-----|-------------|-------|------
B|-----|-------------|-------|------
G|-----|-------------|--7----|--7---
D|-----|---------2---|--7----|--7---
A|-----|--2---4------|--5----|--5---
E|--5--|-------------|-------|------

e|------|---------------------------
B|------|---------------------------
G|-6----|--4---4--------------------
D|-7----|--4---4-------------4------
A|-4----|--2---2--2--2--2--2-2------
E|------|---------------------------



[1:06]Refrao

e----------------------|----------
B----------------------|----------
G----------------------|----------
D--2~~-----------------|-7--------
A--2~~-----------------|-5--5--5--
E--0~~-----------------|----------

e|--------------|-------------------
B|--------------|-------------------
G|--------------|-------------------
D|--------------|-------------------
A|5--5--5--5----|-5--5--5--5--5--5--
E|--------------|-------------------

e|----------------------|-----------
B|----------------------|-----------
G|----------------------|-----------
D|----------------------|--4--------
A|5--4--4--4--4--4--4---|--2--2-2-2-
E|----------------------|-----------

e|---| 
B|---| 
G|---| 
D|---| 
A|2--| 
E|---| 





e-----------------------------|--
B-----------------------------|--
G-----------------------------|--
D--4--------------------------|--
A--2--2--2--2--2--2--2--2--2--|--
E-----------------------------|--

e|------|--------------------------|----------------------------| 
B|------|--------------------------|----------------------------| 
G|6~~---|--------------------------|----------------------------| 
D|6~~---|--------------------------|----------------------------| 
A|4~~---|--4-----------------------|----------------------------| 
E|4~~---|--2--2--2--2--2--2--2--2--|--2--2--2--2--2--2--2--2--2-| 





e----------------------------|----
B----------------------------|----
G----------------------------|----
D--7-------------------------|----
A--5--5--5--5--5--5--5--5--5-|--7-
E----------------------------|--5-

e|----------------------------|-----
B|----------------------------|-----
G|----------------------------|-----
D|----------------------------|-----
A|----------------------------|--2--
E|-5--5--5--5--5--5--5--5--5--|--0--

e|---------------------|-----------
B|---------------------|-----------
G|---------------------|-----------
D|---------------------|-----------
A|---------------------|-----------
E|0--0--0--0--0--0--0--|--0--0--0--

e|----| 
B|----| 
G|----| 
D|----| 
A|----| 
E|0-0-| 




e--------------------------------
B--------------------------------
G--------------------------------
D--------------------------------
A--3--2--3--3--2-----3--2--3--3--
E-----------------5--------------

e|------|--------------------------------------|---------| 
B|------|--------------------------------------|---------| 
G|------|--------------------------------------|---------| 
D|------|--------------------------------------|--7/-----| 
A|2-----|--3--2--3--3--2-----3--2--3--3--2-----|--5/-----| 
E|---5--|-----------------5-----------------5--|---------| 




e---------------------------|-----
B---------------------------|-----
G---------------------------|-----
D---------------------------|-----
A--------4----5----4--------|-----
E--2--2----2----2----2--2---|--2--

e|---------------------|-----------
B|---------------------|-----------
G|---------------------|-----------
D|---4-----2-----------|-----------
A|----------------4h5--|--------4--
E|2-----2-----2--------|--2--2-----

e|------------------|----------|    
B|------------------|----------|    
G|------------------|--7-------|    
D|------------------|--7---2---|    
A|---5-----4--------|--5---2---|    
E|2-----2-----2--2--|--5---0---|    

   
   
   
   
   
2x 





e--------------------------|-----
B--------------------------|-----
G--------1----2-----1------|-----
D--------------------------|-----
A--------------------------|-----
E--2--2----2-----2----2--2-|--2--

e|----------------------|-----------
B|----------------------|-----------
G|---6--------4----1h2--|--------1--
D|----------------------|-----------
A|----------------------|-----------
E|2----2--2------2------|--2--2-----

-------------------|---------| 
-------------------|---------| 
---2------1--------|--7------| 
-------------------|--7--2---| 
-------------------|--5--2---| 
2-----2-------2--2-|--5--0---| 




e--------------------------|-----
B--------------------------|-----
G--------1----2-----1------|-----
D--------------------------|-----
A--------------------------|-----
E--2--2----2-----2----2--2-|--2--

e|----------------------|-----------
B|----------------------|-----------
G|---6--------4----1h2--|--------1--
D|----------------------|-----------
A|----------------------|-----------
E|2----2--2------2------|--2--2-----

-------------------| 
-------------------| 
---2------1--------| 
-------------------| 
-------------------| 
2-----2-------2--2-| 




e---------------------------------
B---------------------------------
G---------------------------------
D--7--5--4------------------------
A-----------7--5--4--7--5--4------
E----------------------------7--5-

e|------|---------------------------
B|------|---------------------------
G|------|---------5-----7-----7--9--
D|------|---------------------------
A|----4-|---0--0----0------0--------
E|-4--2-|---------------------------

e||----------------------| 
B||----------------------| 
G||-------5---4----2--4--| 
D||----------------------| 
A||--0--0---0---0--------| 
E||----------------------| 




e------------------------|--------
B------------------------|--------
G------5----7----9\------|--------
D------------------------|--------
A-0--0---0----0----------|--------
E------------------------|--5--7--

e|--------------------------|-------
B|--------------------------|-------
G|--------------------------|-------
D|-----12--11------10-------|--9----
A|--------------------------|-------
E|8------------10------9----|-----8-

e|-----------------------| 
B|-----------------------| 
G|-----------------------| 
D|9----------------------| 
A|----------------3------| 
E|----7--1--0--1---------| 





e------------------------|-------- B------------------------|-------- G--------5----7----7--9--|-------- D------------------------|-------- A-0--0----0----0---------|--0--0-- E------------------------|-------- e|-------------------|------------- B|-------------------|------------- G|5----4-----2--4----|--------5---- D|-------------------|------------- A|--0-----0----------|--0--0----0-- E|-------------------|------------- e|-------------|------------------- B|-------------|------------------- G|7-----9\-----|------------------- D|-------------|----------12-11---- A|---0---------|------------------- E|-------------|--5--7--8-------10- -------| -------| -------| 10-----| -------| ----9--| e-------------------------|------- B-------------------------|------- G-------------------------|------- D--9-----9----------------|------- A--------------------3----|--5--4- E-----8-----7--1--0--1----|--5--4- e|--------------------|------------ B|--------------------|------------ G|--------------------|------------ D|--------------------|------------ A|---4--3----3--2-----|-2--1---5-4- E|---4--3----3--2-----|-2--1------- e|-------------------| B|-------------------| G|-------------------| D|-------------------| A|3-2----------------| E|----6-5-4-3--------| Solo Rafael e--9-----------|--11-----|--12---- B--12b---12b---|--14b----|--15b--- G--------------|---------|-------- D--------------|---------|-------- A--------------|---------|-------- E--------------|---------|-------- e|--14h16--|-------------------14- B|---------|-12/14----14-16-17---- G|---------|---------------------- D|---------|---------------------- A|---------|---------------------- E|---------|---------------------- e|16-14-16-18--------| B|-------------------| G|-------------------| D|-------------------| A|-------------------| E|-------------------| T T T T T T T e--21-17-14-16-21-16-14---------- B--------------------------17-21- G-------------------------------- D-------------------------------- A-------------------------------- E-------------------------------- e|-------------------------|------- B|17-14-16-21-17-14--------|------- G|---------------------16--|-21-18- D|-------------------------|------- A|-------------------------|------- E|-------------------------|------- ------------------------------------14-16-17-| ---------------------------------------------| 15------------15-18-21-18-15-14-15-----------| ----16-21-14---------------------------------| ---------------------------------------------| ---------------------------------------------| T T T T e-19-17-16-14------------------- B-------------17-14-15-17-19-17- G------------------------------- D------------------------------- A------------------------------- E------------------------------- e|--------------------|------------- B|16-14---------------|------------- G|-------16-14-13-14--|-16-19-16-14- D|--------------------|------------- A|--------------------|------------- E|--------------------|------------- --------------------------| --------------------------| 13------------------------| ----16-12-13-19-12-9------| --------------------------| --------------------------| e-9h12p9---------9h12p9----------- B--------12p9h12--------12-9------ G-----------------------------11-- D--------------------------------- A--------------------------------- E--------------------------------- e||-------------------------|-14p9- B||-12p9-----------9--12b---|------ G||------11p9----9----------|------ D||-----------11------------|------ A||-------------------------|------ E||-------------------------|------ e|---12p9----14p9----12p9----| B|12------12------12------12-| G|---------------------------| D|---------------------------| A|---------------------------| E|---------------------------| e-9----------------------------- B---11-12-9-11p9------9----9-11- G-----------------11----11------ D------------------------------- A------------------------------- E------------------------------- e|---|------------------------------- B|12-|-14-14-14-14-14-16-16-16-16-16- G|---|------------------------------- D|---|------------------------------- A|---|------------------------------- E|---|------------------------------- ---------------------------------| 16-17-17-17-17-17-14-14-14-14-14-| ---------------------------------| ---------------------------------| ---------------------------------| ---------------------------------| e------------------------------- B-16-16-16-16-16-16-17-17-17-17- G------------------------------- D------------------------------- A------------------------------- E------------------------------- e|---|------------------------------- B|17-|------------------------------- G|---|-------------------14-16-18-16- D|---|----------14-16-18------------- A|---|-14-16-17---------------------- E|---|------------------------------- -------------------| -------------------| 14-----------------| ---18-16-14-16-18--| -------------------| -------------------| e-------------------16-17-19-17- B----------15-17-19------------- G-14-16-18---------------------- D------------------------------- A------------------------------- E------------------------------- e|16------------------|---------------------------------| B|---19-17-15---------|---------------------------------| G|------------18--16--|--19b--19b-----------------------| D|--------------------|---------------------------------| A|--------------------|---------------------------------| E|--------------------|---------------------------------| Solo Kiko Loureiro [2:22] \/ e------|--------------|- B------|--15b--15b----|- G------|--------------|- D------|--------------|- A------|--------------|- E--0---|--------------|- e|15p14p13p12p8h10h11h12p11p10p8p7h8h10h9h10p9p8p7----------------| B|-------------------------------------------------10p9p8p7-------| G|-----------------------------------------------------------9----| D|----------------------------------------------------------------| A|----------------------------------------------------------------| E|----------------------------------------------------------------| T T T T T e-17b----17p15--------|------20b- B---------------------|-17~~----- G---------------------|---------- D---------------------|---------- A---------------------|---------- E---------------------|---------- e|19-24-19-24-18-24-17-24-|-15-24-19-17-15-17-------------| B|------------------------|-------------------------------| G|------------------------|-------------------------------| D|------------------------|-------------------------------| A|------------------------|-------------------------------| E|------------------------|-------------------------------| e--19-12-19-12-------17p12--17p12- B--------------15-12-------------- G--------------------------------- D--------------------------------- A--------------------------------- E--------------------------------- e|------|-15p12-15p12------------- B|15-12-|-------------15-12-17p12- G|------|------------------------- D|------|------------------------- A|------|------------------------- E|------|------------------------- e|----------------------| B|17p12-----------------| G|--------15--12--------| D|----------------------| A|----------------------| E|----------------------| T e-------------------------12-15- B-15p12-15p12----------12------- G-------------14-13-12---------- D------------------------------- A------------------------------- E------------------------------- e|17-18-17-15-|-12------------------- B|------------|---------------------- G|------------|----15-14-12-14-15-14- D|------------|---------------------- A|------------|---------------------- E|------------|---------------------- ----------------------| ----------------------| 12-14-15p14h12h14p12--| ----------------------| ----------------------| ----------------------| e----------------------- B--------------------14- G-----------12-14-16---- D-------14-------------- A-12/16----------------- E----------------------- e|12h15h17/21p20p19p17-|-22-21-20-19-------------------------------------------| B|---------------------|-------------24p23p22-20-19-20-21-22-21-19-18-17-16-15-| G|---------------------|-------------------------------------------------------| D|---------------------|-------------------------------------------------------| A|---------------------|-------------------------------------------------------| E|---------------------|-------------------------------------------------------| e------------------------------- B-------------------------15-17- G-15-14-13-12-13-14-15-16------- D------------------------------- A------------------------------- E------------------------------- e|------------------|-8h11p8p7------- B|19-18-17-16-15-14-|---------------- G|------------------|-----------11-9- D|------------------|---------------- A|------------------|---------------- E|------------------|---------------- -------12h14p12p11----------------| -------------------13-12-11-12-13-| 8-9-11----------------------------| ----------------------------------| ----------------------------------| ----------------------------------| e-16h17p16p14---------------- B-------------17-16-14-16-17- G---------------------------- D---------------------------- A---------------------------- E---------------------------- e|19h20p19p17--------------------|-/24------------------------------------| B|------------21-19-17-19-21-----|----------------------------------------| G|-------------------------------|----------------------------------------| D|-------------------------------|----------------------------------------| A|-------------------------------|----------------------------------------| E|-------------------------------|----------------------------------------| e-----------------------|-------- B---5--5-----------5----|-------- G---6--6-----------6----|-------- D---6--6-----------6----|-------- A--------4--4--4--------|--4--4-- E-----------------------|-------- e|--------------------|-------------------------------|----------------------| B|---5----------------|---4--4-----------4------------|---2--2------------2--| G|---6----------------|---4--4-----------4------------|---2--2------------2--| D|---6----------------|---4--4-----------4------------|---2--2------------2--| A|4-------4--4--4--4--|---------2--2--2-----2--2--2--2|----------0--0--0-----| E|--------------------|-------------------------------|----------------------| e----------------------|---------- B-----------2----------|---------- G-----------2----------|---------- D-----------2----------|---------- A--0--0--0----0--0--0--|---------- E----------------------|--2----4-- e|-----|-------------|-------| B|-----|-------------|--5~~--| G|-----|-------------|--6~~--| D|-----|---------2---|--6~~--| A|-----|--2---4------|--4~~--| E|--5--|-------------|-------| e-----------------------|-------- B---5--5-----------5----|-------- G---6--6-----------6----|-------- D---6--6-----------6----|-------- A--------4--4--4--------|--4--4-- E-----------------------|-------- e|--------------------|-------------------------------|----------------------| B|---5----------------|---4--4-----------4------------|---2--2------------2--| G|---6----------------|---4--4-----------4------------|---2--2------------2--| D|---6----------------|---4--4-----------4------------|---2--2------------2--| A|4-------4--4--4--4--|---------2--2--2-----2--2--2--2|----------0--0--0-----| E|--------------------|-------------------------------|----------------------| e----------------------|---------- B-----------2----------|---------- G-----------2----------|---------- D-----------2----------|---------- A--0--0--0----0--0--0--|---------- E----------------------|--2----4-- e|-----|-------------|-------|------ B|-----|-------------|-------|------ G|-----|-------------|--7----|--7--- D|-----|---------2---|--7----|--7--- A|-----|--2---4------|--5----|--5--- E|--5--|-------------|-------|------ e|------|--------------------------- B|------|--------------------------- G|-6----|--4---4--2----------------- D|-7----|--4---4--2---5--5--4--2--2- A|-4----|--2---2--0---5--5--5--2--2- E|------|-------------3--3--2--0--0- e|---| B|---| G|---| D|-2-| A|-2-| E|-0-| refrao [3:16] e----------------------------|---- B--5--5--5--4----------------|---- G--4--4--4--4-----------4----|---- D--4--4--4--4-------4-4------|--4- A--2--2--2--2---2-2----------|--4- E----------------------------|--2- e|---|--------------------|--------- B|---|--------------------|--------- G|---|--------------------|--------- D|---|--------------------|--------- A|---|--2-----------------|--------- E|---|--0-0-0-0-0-0-0-0-0-|-0-0-0-0- e|---------------------------------- B|---------------------------------- G|---------------------------------- D|------------------------------6--- A|--------6-6-6-6-6-6-6-6-6-6-6-4-4- E|0-0-0-0--------------------------- e|----| B|----| G|----| D|----| A|4-4-| E|----| e---------------------------|----| B---------------------------|----| G---------------------------|-8--| D--------6------------------|-8--| A--4-4-4-4-4-4-4-4-4-4-4-4--|-6--| E---------------------------|-6--| e|-----------------|--------------- B|-----------------|--------------- G|-----------------|--------------- D|-----------------|--------------- A|--6--------------|--------------- E|--4-4-4-4-4-4-4--|-4-4-4-4-4-4-4- e|-----------------------------------------| B|-----------------------------------------| G|-----------------------------------------| D|----------4------------------------------| A|2---------2-2-2-2-2-2-2--4---------------| E|0-0-0-0-0----------------2-2-2-2-2-2-2-2-| e-------------------------------- B-------------------------------- G---------------------------9---- D----------9--11-----9--11----9-- A---9--12--------12-------------- E-------------------------------- e|----------|--------------------------------------------------------- B|----------|--------------------------------------------------------- G|---9--11--|--------------------------------------------------------- D|11--------|--------------------------------------------------------- A|----------|----------------------------------------6-6-6-6-6-6-6--4- E|----------|-2-2-2-2-2-2-2-2-2-2-2--0-0-0-0-0-0-0-0------------------ --------| --------| --------| --------| 4-4-4-4-| --------| e--------------------------------- B--------------------------------- G--------------------------------- D--------------------------------- A-4-4-4-4-4-4-4-4-4-4-2-2-1---1--- E---------------------------4---2- e|--------|----------|------------- B|--------|----------|------------- G|--------|-8--8--8--|------------- D|--------|-8--8--8--|------------- A|--------|-6--6--6--|-6----------- E|--------|-6--6--6--|-4-4-4-4-4-4- e|---------------------------------- B|---------------------------------- G|---------------------------------- D|--------------------------4------- A|----------2---------------2-2-2-2- E|4-4-4-4-4-0-0-0-0-0-0-0-0--------- --------| --------| --------| --------| 2-2-2-2-| --------| e---------------------|--------|- B---------------------|--------|- G---------------------|--------|- D---------------------|--------|- A-4-------------------|-2--2---|- E-2-2-2-2-2-2-2-2-2-2-|-0--0---|- e|------|----------------------------|-------------------|------------ B|------|----------------------------|-------------------|------------ G|------|----------------------------|-------------------|------------ D|4--4--|----------------------------|-------------------|-4-------4-- A|2--2--|--4-------------------------|-2--------2--------|-2-2-2-2-2-- E|------|--2--2-2-2-2-2--2-2-2-2-2-2-|-0--0-0-0-0--0-0-0-|------------ --------| --------| --------| --------| 2-2-2-2-| --------| e----------------------|---------- B----------------------|---------- G----------------------|---------- D-7---------7----------|---------- A-5--5-5-5--5--5-5-5-5-|-7-------- E----------------------|-5--5-5-5- e|-------------|------------------- B|-------------|------------------- G|-------------|------------------- D|-------------|------------------- A|-7-----------|-5-----------5----- E|-5--5-5-5-5--|-3--3--3--3--3--3-- e|-----|------------------------------------| B|-----|------------------------------------| G|-----|------------------------------------| D|-----|--7--------------7------------------| A|-----|--5--5---5---5---5--5--5--5---------| E|3--3-|------------------------------------| e-----------------------|--------- B--16----16----16-17-16-|--14--14- G-----14----14----------|--------- D-----------------------|--------- A-----------------------|--------- E-----------------------|--------- e|-------------|------------------- B|-------14----|-16----16----16-17- G|----14-------|----14----14------- D|-14----------|------------------- A|-------------|------------------- E|-------------|------------------- e|-------| B|16-14\-| G|-------| D|-------| A|-------| E|-------| 03. Angels and Demons Rumors come to the ears of the cardinals and the Pope. "A knight from the order of the temple has gone crazy and is claiming to be the new Jesus! Many of the peasants from the villages seem to be following the man." ...For threatening the catholic hegemony he is persecuted, captured, tortured, kept in prison, judged and sentenced to death. In front of the cardinals, the culprit humbly explains how Angels and Demons disguise and then he pronounces his famous Theory of Light based on the forgiveness of Satan, the absence of God, the Athiest Love and the Gnosis. "No absolute truth can exist in a conscious mind, because every single thought is submitted to an individual and arbitrary judgment." Dreams - Sensations you prove Are taken from nature You find those emotions are true in your mind Fight against the kingdom of fear Sooner or later they'll try to convince you are wrong But I'm sure… We're just Crawling Angels and Demons disguised The truth you don't know so try to be sure When your Angels and Demons arise Face the Truth: God is not love! Love!!! Feel as fluid as life Love is a rainbow As much as it seems to be real It's all in your mind Sooner or later I'm gonna convince that The truth is a lie There's no Judge when we die Only dust… We're just Crawling Angels and Demons disguised The truth you don't know so try to be sure When your Angels and Demons arise When your Angels and Demons arise But we're still not sure which way we should go When the Angels and Demons disguise Just confusing our brains with their lies Enticing emotions Revolting devotions The Angels and Demons Telling me lies!
Composición: Colaboración y revisión: rodrigo souza

Utilizamos cookies e outras tecnologias semelhantes para melhorar e personalizar sua experiência de uso. Ao navegar nos produtos, você concorda com as condições descritas em nossa Política de Privacidade.