Comitiva Esperança

Almir Sater

A
123
X02220
A7
12
X02020
D
123
XX0232
E
123
022100
G
123
320003
Tono: G
[Intro]  D


E|-------------------------------
B|-3---3--2--2-2-0-2-2--3---3-2--
G|-------------------------------
D|---0----0--------2------0---0--
A|-------------------------------
E|-------------------------------

E|--------------| 
B|2-2-0-2-2--3--| 
G|--------------| 
D|------0-------| 
A|--------------| 
E|--------------| 



E|-------------------------------
B|---3--2-2--3-2-0---------------
G|------------------2--2-4-2-0---
D|-0----0----0------0----------4-
A|-------------------------------
E|-------------------------------

E|--------------| 
B|--------------| 
G|--------------| 
D|4-4--2--0-0-0-| 
A|--------------| 
E|--------------| 


        D
Nossa viagem não é ligeira
              D     G     D
Ninguém tem pressa de chegar
            D
A nossa estrada, é boiadeira
         D       G      D
Não interessa onde vai dar
G           D
Onde a Comitiva Esperança
  G         D
Chega já começa a festança
     D      G   D
Através do Rio Negro
      A7            D
Nhecolândia e Paiaguás
        D       G    D
Vai descendo o Piqueri
A7 D O São Lourenço e o Paraguai ( D ) D Tá de passagem, abre a porteira D G D Conforme for pra pernoitar Se a gente é boa, hospitaleira D G D A Comitiva vai tocar G Moda ligeira, que é uma doideira D G Assanha o povo e faz dançar A Oh moda lenta que faz sonhar G D Onde a Comitiva Esperança G D Chega já começa a festança D G D Através do Rio Negro A7 D Nhecolândia e Paiaguás D G D Vai descendo o Piqueri A7 D O São Lourenço e o Paraguai E A É, tempo bom que tava por lá G D E Nem vontade de regressar A Só vortemo eu vô confessar G É que as águas chegaram em Janeiro A Deslocamos um barco ligeiro D Fomos pra Corumbá
Composición: Almir Sater / Paulo SimõesColaboración y revisión: Lucas KappaunCarmo MumbachAdriano Henriquejoao netoy más 2

Utilizamos cookies para personalizar sua experiência. Ao acessar o site, você concorda com a nossa Política de Privacidade.