Girl On Fire

Alicia Keys

A
123
X02220
C#m
234
X46654
D
123
XX0232
E
123
022100
F#m
34
244222
Tono: G
[Primeira Parte]


[Tab - Primeira Parte]

Parte 1 De 4
   A
E|--------------------------------
B|-2----2---2---2-----------------
G|-2----2---2---2-----------------
D|-2--2---2---2---2---------------
A|-0------------------------------
E|--------------------------------



Parte 2 De 4
   F#m
E|--------------------------------
B|-2----2---2---2-----------------
G|-2----2---2---2-----------------
D|-4--4---4---4---4---------------
A|--------------------------------
E|-2------------------------------



Parte 3 De 4
   D
E|-2----2---2---2-----------------
B|-3----3---3---3-----------------
G|-2--2---2---2---2---------------
D|-0------------------------------
A|--------------------------------
E|--------------------------------



Parte 4 De 4
   E
E|-0----0---0---0-----------------
B|-0----0---0---0-----------------
G|-1--1---1---1---1---------------
D|--------------------------------
A|--------------------------------
E|-0------------------------------


A
  She's just a girl
              F#m
And she's on fire
D
  Hotter than a fantasy
E
  Lonely like a highway
A
  She's living in a world
             F#m
And it's on fire
D                A
  Feeling the catastrophe
D                         E
  But she knows she can fly away

[Segunda Parte]

A   F#m
Oh,     she got both feet
         C#m
On the ground
                      E
And she's burning it down
A  F#m
Oh,    she got her head
         C#m
In the clouds
                       E
And she's not backing down

[Refrão]

[Tab - Refrão]

Parte 1 De 4
   p    p  e  p  p e

E|-0-------0-------0----0---------
B|-0h2--2--2--2--2-2--2-2---------
G|-0h2--2--2--2--2-2--2-2---------
D|-0h2--2--2--2--2-2--2-----------
A|-0----------0--0----------------
E|--------------------------------


Parte 2 De 4
   p    p  e  p  p e

E|-2-------2-------2----2---------
B|-2-------2--2--2-2--2-2---------
G|-2----2--2--2--2-2--2-2---------
D|-2h4--4--4--4--4-4--4-4---------
A|-2h4--4-----4--4-4--4-----------
E|-2----2-----2--2----------------


Parte 3 De 4 p p e p p e E|-0-------2-------2----2--------- B|-3----3--3--3--3-3--3-3--------- G|-0h2--2--2--2--2-2--2-2--------- D|-0----0--0--0--0-0--0----------- A|-------------------------------- E|-------------------------------- Parte 4 De 4 p p e p p e E|-0-------0-------0----0--------- B|-0-------0--0--0-0--0-0--------- G|-1----1--1--1--1-1--1-1--------- D|-0h2--2--2--2--2-2--2-2--------- A|-0h2--2-----2--2-2--2----------- E|-0----0-----0--0---------------- A F#m This girl is on fire C#m E This girl is on fire A F#m She's walking on fire C#m E This girl is on fire [Primeira Parte - Variação Letra] A Looks like a girl F#m But she's a flame D So bright, she can burn your eyes E Better look the other way A You can try but F#m You'll never forget her name D A She's on top of the world D E Hottest of the hottest girls say [Segunda Parte] A F#m Oh, we got our feet C#m On the ground E And we're burning it down A F#m Oh, got our head C#m In the clouds E And we're not coming down [Refrão] A F#m This girl is on fire C#m E This girl is on fire A F#m She's walking on fire C#m E This girl is on fire [Terceira Parte] D Everybody stands E As she goes by Cause they can see the flame That's in her eyes D Watch her when she's lighting E Up the night A Nobody knows that F#m She's a lonely girl C#m And it's a lonely world D But she gon' let it burn, baby A D Burn, baby [Refrão Final] E A F#m This girl is on fire C#m E This girl is on fire A F#m She's walking on fire C#m E This girl is on fire ( A F#m D E ) ( A F#m C#m E ) ( A F#m D E ) ( A F#m C#m E ) A She's just a girl F#m And she's on fire
Composición: Alicia Keys / Billy Squier / Salaam RemiColaboración y revisión: Gustavo CunhaDliss GonçalvesAriane Santosjorge barbosay más 5
videoclase Girl On Fire (aula de violão completa)

Utilizamos cookies e outras tecnologias semelhantes para melhorar e personalizar sua experiência de uso. Ao navegar nos produtos, você concorda com as condições descritas em nossa Política de Privacidade.