Rainbows

Alice Nine

Tono: G
(afinção d|a|d|g|b|e)

(intro)
(0:00-0:36)
#1t1##1t2#|------------------------------------------------------------------------|
|------------------------------------------------------------------------|
|------------------------------------------------------------------------|
|------------------------------------------------------------------------|4x
|------5-----5-----8-----3-----------------5-----5-----8-----3-----------|
|--0-0---0-0---0-0---0-0---6-3-5-------0-0---0-0---0-0---0-0---6-5-3-----|#/1t2##/1t1#

(verse)
(0:40)
Guitar 1.
#2t1##2t2#------------------------------------|
------------------------------------|
---5-5-/3-5-5-/3-5-5----------------|
---x-x--x-x-x--x-x-x----------------|
---3-3-/1-3-3-/1-3-3----------------|
------------------------------------|#/2t2##/2t1#
#3t1#Guitar 2.
#3t2#------------------------------------|
------------------------------------|
-------------14-/0---14-/0----------|
--------------x-------x-------------|
-------------12-/0---12-/0----------|
------------------------------------|#/3t2##/3t1#

#4t1#(piano part) (0:51)
#4t2#----5---8--10---------5----8---5----|
------------------------------------|
------------------------------------|
------------------------------------|  1x
------------------------------------|
------------------------------------|#/4t2##/4t1#
#5t1#(guitar part)
#5t2#------------------------------------|
------------------------------------|
------------------------------------| 6x
------------------------------------|
------10-8/5-----11-10/8------------|
--0-0---------0-0-------------------|#/5t2##/5t1#

#6t1#(chorus) (1:04)
#6t2#|------------------------------------------------------------------------|
|------------------------------------------------------------------------|
|------------------------------------------------------------------------|
|------------------------------------------------------------------------|
|------5-----5-----8-----3-----------------5-----5-----8-----3-----------|
|--0-0---0-0---0-0---0-0---6-3-5-------0-0---0-0---0-0---0-0---6-5-3-----|#/6t2##/6t1#

#7t1##7t2#------------------------------------|
------------------------------------|
--3------5------3-------------------| 2x
--x-(8x)-x-(8x)-x-(8x)--------------|
--1------3------1-------------------|
------------------------------------|#/7t2##/7t1#

#8t1##8t2#|------------------------------------------------------------------------|
|------------------------------------------------------------------------|
|------------------------------------------------------------------------|
|------------------------------------------------------------------------|
|------5-----5-----8-----3-----------------5-----5-----8-----3-----------|
|--0-0---0-0---0-0---0-0---6-3-5-------0-0---0-0---0-0---0-0---6-5-3-----|#/8t2##/8t1#

(verse) (1:43)
(chorus) (2:07)

#9t1#(2:37)
#9t2#---8-7-8-7-8-7-8-10-----------------|
------------------------------------|
------------------------------------| 4x (not sure about this)
------------------------------------|
------------------------------------|
------------------------------------|#/9t2##/9t1#

#10t1#(solo) (3:06)
#10t2#|----------------------10-8-------10-8b----|
|----8b-8b---6---6-8-9------6-5-6-------8--|b
|----------7---7---------------------------|
|------------------------------------------|
|------------------------------------------|
|------------------------------------------|#/10t2##/10t1#

#11t1##11t2#-----------------------------------------|
--6-8-6----------------------------------|
-----------------------------------------|
--------3-5-3--5b------------------------|
-----------------------------------------|
-----------------------------------------|#/11t2##/11t1#

#12t1##12t2#|------------------------------------------------------------------------|
|------------------------------------------------------------------------|
|------------------------------------------------------------------------|
|------------------------------------------------------------------------|
|------5-----5-----8-----3-----------------5-----5-----8-----3-----------|
|--0-0---0-0---0-0---0-0---6-3-5-------0-0---0-0---0-0---0-0---6-5-3-----|#/12t2##/12t1#

#13t1##13t2#------------------------------------|
------------------------------------|
--3------5------3-------------------| 2x
--x-(8x)-x-(8x)-x-(8x)--------------|
--1------3------1-------------------|
------------------------------------|#/13t2##/13t1#

#14t1##14t2#|------------------------------|
|------------------------------|
|--7------5------4------7------| 2x
|--x-(8x)-x-(8x)-x-(8x)-x-(8)--|
|--5------3------2------5------|
|------------------------------|#/14t2##/14t1#

#15t1#(end solo)
#15t2#|------------------------------------------|
|---9b-9b--------6---6-8-10-10--13-13-13---|
|---------7--7-5---7------------14-14-14---|
|------------------------------------------|
|------------------------------------------|
|------------------------------------------|#/15t2##/15t1#

#16t1##16t2#--13-12----15-13-15-17--17-17-|
--------12--------------17-17-|
------------------------------|
------------------------------|
------------------------------|
------------------------------|#/16t2##/16t1#

#17t1##17t2#|--------|
|--13-10-|
|--------|
|--------|
|--------|
|--------|#/17t2##/17t1#

#18t1#(tapping part)
#18t2#|--------------------------------------------|
|-15-10-8--13-10-8--15-10-8--13-10-8--15-13--|
|--------------------------------------------| 4x
|--------------------------------------------|
|--------------------------------------------|
|--------------------------------------------|#/18t2##/18t1#

#19t1#(end)
#19t2#|--------------------------------------------|
|-----------------------8-10---13-13-13------|
|------10-10-9-10-12-10--------14-14-14------|
|---7----------------------------------------|
|--------------------------------------------|
|--------------------------------------------|#/19t2##/19t1#
Composición: Colaboración y revisión: Luis Fernando