Down In A Hole

Alice In Chains

A5
12
X022XX
Ab5
134
466XXX
Am
123
X02210
C5
134
X355XX
C5(9)
34
X35533
D
123
XX0232
D5
134
X577XX
Dm
123
XX0231
E5
12
022XXX
F5
134
133XXX
G
123
320003
G5
134
355XXX
Tono: G
[Intro] Am  G  D
        Am  G  D
        Am  G  D
        Am  G  D


     Am               G        
E|--------------------3--------2-
B|--0h1--------1--------3--------
G|------2--------2--------0------
D|--------2--------2-----------0-
A|--0-------0--------------------
E|--------------------3----------
  D
E|---------------------|      
B|3--------------------|      
G|--2------------------|      
D|----0----------------| (4x) 
A|---------------------|      
E|---------------------|      


[Primeira Parte]


     Am               G        
E|--------------------3--------2-
B|--0h1--------1--------3--------
G|------2--------2--------0------
D|--------2--------2-----------0-
A|--0-------0--------------------
E|--------------------3----------
  D
E|---------------------|      
B|3--------------------|      
G|--2------------------|      
D|----0----------------| (4x) 
A|---------------------|      
E|---------------------|      


 Am      G     D        Am  G  D
Bury me softly in this womb
Am           G       D
I give this part of me for you
 Am                  G      D
Sand rains down and here I sit
 Am            G
Holding rare flowers
D       Am  G  D
In her tomb
     Am  G  D
In bloom

[Refrão]


    Am                 G          
E|---------------------3-3-3------
B|---------------------3-3-3------
G|---------------------0-0-0------
D|--9-10-9-7--7-7------0-0-0------
A|--0-0--0-0--0-0------x-x-x------
E|---------------------3-3-3------
  D 
E|2-2-2---------------|      
B|3-3-3---------------|      
G|2-2-2---------------|      
D|0-0-0---------------| (8x) 
A|--------------------|      
E|--------------------|      


 Am                          G     
Down in a hole and I don't know if 
D         Am   G  D
I can be saved
 Am              G           D   
See my heart, I decorate it like 
    Am  G  D
a grave
     Am
You don't understand who they
  G            D           Am  G D
Thought I was supposed to be
 Am
Look at me now
       G             D             
I'm a man who won't let himself be
Am  G  D


[Segunda Parte]


     Dm               C5(9)      
E|--------------------0-----0----
B|--------------------3-------3--
G|--9-10-9-7--7-7-----0----------
D|--0-0--0-0--0-0-----0----------
A|--------------------3----------
E|-------------------------------
  G
E|0--0----------------|      
B|3----3--------------|      
G|0------0------------|      
D|0-------------------| (4x) 
A|2-------------------|      
E|3-------------------|      


 Dm            C5(9)  G
Down in a hole
 Dm            C5(9)  G
Feeling so small
 Dm            C5(9)  G
Down in a hole
Dm C5(9) G Losin' my soul [Terceira Parte] D5 E5 F5 C5 G5 E|-------------------------------- B|--3----------------------------- G|--2----------------------------- D|--0--------5--5--5-5-5---------- A|-----2--3--3--3--3-3-3-5-5--5-5- E|-----0--1--------------3-3--3-3- Ab5 G5 F5 A5 E|-------------------| B|-------------------| G|-----------------2-| D|-----------------2-| A|5-5/6-5-3--3-3-5-0-| E|3-3/4-3-1--1-1-3---| D5 E5 F5 C5 G5 I'd like to fly G5 Ab5 G5 F5 A5 But my wings have been so denied ( Am G D ) ( Am G D ) [Terceira Parte] Am G Down in a hole and they've put all D Am G D The stones in their place Am G I've eaten the sun so my tongue D Am G D Has been burned of the taste Am I have been guilty G D Am G D Of kicking myself in the teeth Am G I will speak no more D Am G D of my feelings beneath [Segunda Parte] Dm C5(9) G Down in a hole Dm C5(9) G Feeling so small Dm C5(9) G Down in a hole Dm C5(9) G Losin' my soul [Terceira Parte] D5 E5 F5 C5 G5 I'd like to fly G5 Ab5 G5 F5 A5 But my wings have been so denied ( Am G D ) ( Am G D ) [Quarta Parte] Am G D Am G Bury me softly in this womb (Oh D I wanna be inside of you) Am G D Am I give this part of me for you G D (Oh I wanna be inside of you) Am G D Sand rains down and here I sit (Oh I wanna be inside of you) Am G D Holding rare flowers Am G D In a tomb... In bloom...Oh I want to be inside [Segunda Parte] Dm C5(9) G Down in a hole Dm C5(9) G Feeling so small Dm C5(9) G Down in a hole Dm C5(9) G Losin' my soul Dm C5(9) G Down in a hole Dm C5(9) G Feeling so small Dm C5(9) G Down in a hole Dm C5(9) G Outta control [Terceira Parte] D5 E5 F5 C5 G5 I'd like to fly G5 Ab5 G5 F5 A5 But my wings have been so denied ( Am G D ) ( Am G D ) ( Am G D ) ( Am G D )
Composición: Jerry CantrellColaboración y revisión: Getúlio VasconcelosLéo ColiRafael SouzaAlessandra Macedoy más 1

Utilizamos cookies e outras tecnologias semelhantes para melhorar e personalizar sua experiência de uso. Ao navegar nos produtos, você concorda com as condições descritas em nossa Política de Privacidade.