A4
123
X02230
D2
12
XX0230
E
123
022100
F
234
133211
G
123
320003
Tono: G

BASE

e-0----0---0-0--0---0--0---0-0--|-
B-2----2---2-2--2---2--2---2-2--|-
G-2----2---2-2--2---2--2---2-2--|-
D-2----2---2-2--2---2--2---2-2--|-
A-0----0---0-0--0---0--0---0-0--|-

e|--0--0--0--0----------------------
B|--2--2--2--2--3-/-5--3--2---------
G|--2--2--2--2--0-/-0--0--2---------
D|--2--2--2--2--3-/-5--3--2---------
A|--0--0--0--0--0-/-0--0--0---------

e|-------- 
B|-------- 
G|-------- 
D|-------- 
A|-------- 



Refrão:  F      A4 D2   F       G



Solo de entrada.
B    ------------------5h5^h5-
D    ----------------7--------
A    ------5-7--7/8-----------

B|3h3^h3------------------5h5^h5-3h3^h3-8h8^h8--------   
D|------------------------------------------------------ 
A|--------------5-7--7/8------------------------------   

E    

5--7-----------------------------5--7----------------------------------------

Solo F e ---------------------------- B ---------------------------- G -----------5--7^--7^--5----- A4 e|---------5-----5------------------------------- B|-------5-----5-----5--8^--8---7--5--7^--5------ G|5---7--------------------------------------7--5 D 5h7--5--7----------------7------------------------------------------------- F G G D ------7--5--7r5--5h7--7------ A --------------------------5-- E ----------------------------- D|-------------------------5-7------ A|3---5^-5^-----------5--7---------- E|-----------5--3--5---------------- D|------------ A|------------ E|------------ 7--5-------------------------------------------------------5--7--7^---7---- e ----------------------------- B ---5------------------------- e|-7--5------- B|-------7^--5 G 7-----7--7^--7^--7^-5----7^-- D ----------------------7------ 7^--7^-5----------------5--------- D|---------7---5--5h7s--5----------- ------------ D|------------ G|---------------------------------- D|--5--5h7-5h7---------------------- G|------------ D|------------ Solo final B ------------------5h5^h5- D ----------------7-------- A ------5-7--7/8----------- B|3h3^h3-------------------5h5^h5- D|-----------------------7-------- A|-------------5-7--7/8----------- 3h3^h3-8h8^h8--- ----------------- ---------------- E 5--7-----------------------------5--7-------------------------------------
Composición: Jerry CantrellColaboración y revisión:

Utilizamos cookies e outras tecnologias semelhantes para melhorar e personalizar sua experiência de uso. Ao navegar nos produtos, você concorda com as condições descritas em nossa Política de Privacidade.