Don't Wanna Fight

Alabama Shakes

Bm
34
799777
Em
234
X79987
Em7
123
022030
Tono: G
[Introdução 1]

(Guitarra 1)

Parte 1 de 4
  P.M.  .  .  .  . .  .  . .  .  .  .  . .  .
#1t1##1t2#E|-----------------------------------------------------|
B|-----------------------------------------------------|
G|-----------------------------------------------------|
D|-----------------------------------------------------|
A|-9-9--9--9--9--7-7--7--9-9--9--9--9--7-7--7----------|
E|-----------------------------------------------------|#/1t2##/1t1#

Parte 2 de 4
  P.M.  .  .  .  . .  .  . .  .  .  .  . .  .
#2t1##2t2#E|-----------------------------------------------------|
B|-----------------------------------------------------|
G|-----------------------------------------------------|
D|-----------------------------------------------------|
A|-5-5--5--5--5----------5-5--5--5--5------------------|
E|---------------7-7--7----------------7-7--7----------|#/2t2##/2t1#

Parte 3 de 4
  P.M.  .  .  .  . .  .  . .  .  .  .  . .  .
#3t1##3t2#E|-----------------------------------------------------|
B|-----------------------------------------------------|
G|-----------------------------------------------------|
D|-----------------------------------------------------|
A|-9-9--9--9--9--7-7--7--9-9--9--9--9--7-7--7----------|
E|-----------------------------------------------------|#/3t2##/3t1#

Parte 4 de 4
  P.M.  .  .  .  . .  .  . .  .  .  .  . .  .
#4t1##4t2#E|-----------------------------------------------------|
B|-----------------------------------------------------|
G|-----------------------------------------------------|
D|-----------------------------------------------------|
A|-5-5--5--5--5----------5-5--5--5--5------------------|
E|---------------7-7--7----------------7-7--7----------|#/4t2##/4t1#


(Guitarra 2)

Parte 1 de 4
  P.M.  .  .  .  . .  .  . .  .  .  .  . .  .
#5t1##5t2#E|-----------------------------------------------------|
B|-----------------------------------------------------|
G|-----------------------------------------------------|
D|-----------------------------------------------------|
A|-----------------------------------------------------|
E|-5-5--5--5--5--5-7--7--5-5--5--5--5--5-7--7----------|#/5t2##/5t1#

Parte 2 de 4
  P.M.  .  .  .  . .  .  . .  .  .  .  . .  .
#6t1##6t2#E|-----------------------------------------------------|
B|-----------------------------------------------------|
G|-----------------------------------------------------|
D|-----------------------------------------------------|
A|--------------------------------------------5--------|
E|-5-5--5--5--5--5-7--7--5-5--5--5--5--5-7--7----------|#/6t2##/6t1#

Parte 3 de 4
  P.M.  .  .  .  . .  .  . .  .  .  .  . .  .
#7t1##7t2#E|-----------------------------------------------------|
B|-----------------------------------------------------|
G|-----------------------------------------------------|
D|-----------------------------------------------------|
A|-----------------------------------------------------|
E|-5-5--5--5--5--5-7--7--5-5--5--5--5--5-7--7----------|#/7t2##/7t1#

Parte 4 de 4
  P.M.  .  .  .  . .  .  . .  .  .  .
#8t1##8t2#E|-----------------------------------------------------|
B|-------------------------------------7------7--------|
G|-------------------------------------7------7--------|
D|-----------------------------------------9-----------|
A|----------------------------------------10-----------|
E|-5-5--5--5--5--5-7--7--5-5--5--5--7------------------|#/8t2##/8t1#


[Introdução 2]

(Guitarra 1)

#9t1#Parte 1 de 4
   Em
#9t2#E|-----------------------------------------------------|
B|-----------------------------------------------------|
G|-----------------------------------------------------|
D|-----------------------------------------------------|
A|-9-9--9--9--9--7-7--7--9-9--9--9--9--7-7--7----------|
E|-----------------------------------------------------|#/9t2##/9t1#

#10t1#Parte 2 de 4
   Bm
#10t2#E|-----------------------------------------------------|
B|-----------------------------------------------------|
G|-----------------------------------------------------|
D|-----------------------------------------------------|
A|-5-5--5--5--5----------5-5--5--5--5------------------|
E|---------------7-7--7----------------7-7--7----------|#/10t2##/10t1#

#11t1#Parte 3 de 4
   Em
#11t2#E|-----------------------------------------------------|
B|-----------------------------------------------------|
G|-----------------------------------------------------|
D|-----------------------------------------------------|
A|-9-9--9--9--9--7-7--7--9-9--9--9--9--7-7--7----------|
E|-----------------------------------------------------|#/11t2##/11t1#

#12t1#Parte 4 de 4
   Bm
#12t2#E|-----------------------------------------------------|
B|-----------------------------------------------------|
G|-----------------------------------------------------|
D|-----------------------------------------------------|
A|-5-5--5--5--5----------5-5--5--5--5------------------|
E|---------------7-7--7----------------7-7--7----------|#/12t2##/12t1#


(Guitarra 2)

#13t1#Parte 1 de 4
   Em
#13t2#E|-7--------14----14--15--14\---------------|
B|-8----12--15----15------14\---------------|
G|-9----12--16------------------------------|
D|-9----14----------------------------------|
A|-7----------------------------------------|
E|------------------------------------------|#/13t2##/13t1#

#14t1#Parte 2 de 4
   Bm
#14t2#E|-7----------------------------------------|
B|-7----7--------------7-7------------------|
G|-7----7---------7----9-7------------------|
D|-9----9---------9------9------------------|
A|---------9------9-------------------------|
E|------------10--7-------------------------|#/14t2##/14t1#

#15t1#Parte 3 de 4
   Em
#15t2#E|-7----9--9/10-----------------------------|
B|-8----8--8--------------------------------|
G|-9----9--9--------------------------------|
D|-9----------------------------------------|
A|-7----------------------------------------|
E|------------------------------------------|#/15t2##/15t1#

#16t1#Parte 4 de 4
   Bm
#16t2#E|-7----------------------------------------|
B|-7----------------------------------------|
G|-7----------------------------------------|
D|-9----------------------------------------|
A|-9----------------------------------------|
E|-7----------------------------------------|#/16t2##/16t1#


[Primeira Parte]

(Guitarra 1)

#17t1#Parte 1 de 8
   Em
#17t2#E|-----------7---------------7--------------|
B|-8/10-8----8----8/10--8----8--------------|
G|-9/11-9----9----9/11--9----9--------------|
D|-----------9---------------9--------------|
A|-----------7---------------7--------------|
E|------------------------------------------|#/17t2##/17t1#

#18t1#Parte 2 de 8
   Bm
#18t2#E|-----------7---------------7--------------|
B|-7h8--7----7----7h8---7----7--------------|
G|-7h9--7----7----7h9---7----7--------------|
D|-----------9---------------9--------------|
A|------------------------------------------|
E|------------------------------------------|#/18t2##/18t1#

#19t1#Parte 3 de 8
   Em
#19t2#E|-----------7---------------7--------------|
B|-8/10-8----8----8/10--8----8--------------|
G|-9/11-9----9----9/11--9----9--------------|
D|-----------9---------------9--------------|
A|-----------7---------------7--------------|
E|------------------------------------------|#/19t2##/19t1#

#20t1#Parte 4 de 8
   Bm
#20t2#E|-----------7---------------7--------------|
B|-7h8--7----7----7h8---7----7--------------|
G|-7h9--7----7----7h9---7----7--------------|
D|-----------9---------------9--------------|
A|------------------------------------------|
E|------------------------------------------|#/20t2##/20t1#

#21t1#Parte 5 de 8
   Em
#21t2#E|-----------7---------------7--------------|
B|-8/10-8----8----8/10--8----8--------------|
G|-9/11-9----9----9/11--9----9--------------|
D|-----------9---------------9--------------|
A|-----------7---------------7--------------|
E|------------------------------------------|#/21t2##/21t1#

#22t1#Parte 6 de 8
   Bm
#22t2#E|-----------7---------------7--------------|
B|-7h8--7----7----7h8---7----7--------------|
G|-7h9--7----7----7h9---7----7--------------|
D|-----------9---------------9--------------|
A|------------------------------------------|
E|------------------------------------------|#/22t2##/22t1#

#23t1#Parte 7 de 8
   Em
#23t2#E|-----------7---------------7--------------|
B|-8/10-8----8----8/10--8----8--------------|
G|-9/11-9----9----9/11--9----9--------------|
D|-----------9---------------9--------------|
A|-----------7---------------7--------------|
E|------------------------------------------|#/23t2##/23t1#

#24t1#Parte 8 de 8
   Bm
#24t2#E|-----------7-------------------14---------|
B|-7h8--7----7----7h8---7--------15---------|
G|-7h9--7----7----7h9---7----9/-------------|
D|-----------9---------------9/-------------|
A|------------------------------------------|
E|------------------------------------------|#/24t2##/24t1#


(Guitarra 2)

Parte 1 de 8
  Em
  P.M.  .  .  .  . .  .  . .  .  .  .  . .  .
#25t1##25t2#E|-----------------------------------------------------|
B|-----------------------------------------------------|
G|-----------------------------------------------------|
D|-----------------------------------------------------|
A|-5-5--5--5--5----------5-5--5--5--5------------------|
E|---------------7-7--7----------------7-7--7----------|#/25t2##/25t1#

Parte 2 de 8
  Bm
  P.M.  .  .  .  . .  .  . .  .  .  .  . .  .
#26t1##26t2#E|-----------------------------------------------------|
B|-----------------------------------------------------|
G|-----------------------------------------------------|
D|-----------------------------------------------------|
A|-----------------------------------------------------|
E|-5--5—5--5--5--5-7--7--5-5--5--5--5--5-7--7----------|#/26t2##/26t1#

Parte 3 de 8
  Em
  P.M.  .  .  .  . .  .  . .  .  .  .  . .  .
#27t1##27t2#E|-----------------------------------------------------|
B|-----------------------------------------------------|
G|-----------------------------------------------------|
D|-----------------------------------------------------|
A|-5-5--5--5--5----------5-5--5--5--5------------------|
E|---------------7-7--7----------------7-7--7----------|#/27t2##/27t1#

Parte 4 de 8
  Bm
  P.M.  .  .  .  . .  .  . .  .  .  .  . .  .
#28t1##28t2#E|-----------------------------------------------------|
B|-----------------------------------------------------|
G|-----------------------------------------------------|
D|-----------------------------------------------------|
A|-----------------------------------------------------|
E|-5-5--5--5--5--5-7--7--5-5--5--5--5--5-7--7----------|#/28t2##/28t1#

Parte 5 de 8
  Em
  P.M.  .  .  .  . .  .  . .  .  .  .  . .  .
#29t1##29t2#E|-----------------------------------------------------|
B|-----------------------------------------------------|
G|-----------------------------------------------------|
D|-----------------------------------------------------|
A|-5-5--5--5--5----------5-5--5--5--5------------------|
E|---------------7-7--7----------------7-7--7----------|#/29t2##/29t1#

Parte 6 de 8
  Bm
  P.M.  .  .  .  . .  .  . .  .  .  .  . .  .
#30t1##30t2#E|-----------------------------------------------------|
B|-----------------------------------------------------|
G|-----------------------------------------------------|
D|-----------------------------------------------------|
A|-----------------------------------------------------|
E|-5-5--5--5--5--5-7--7--5-5--5--5--5--5-7--7----------|#/30t2##/30t1#

Parte 7 de 8
  Em
  P.M.  .  .  .  . .  .  . .  .  .  .  . .  .
#31t1##31t2#E|-----------------------------------------------------|
B|-----------------------------------------------------|
G|-----------------------------------------------------|
D|-----------------------------------------------------|
A|-5-5--5--5--5----------5-5--5--5--5------------------|
E|---------------7-7--7----------------7-7--7----------|#/31t2##/31t1#

Parte 8 de 8
  Bm
  P.M.  .  .  .  . .  .  . .  .  .  .
#32t1##32t2#E|-----------------------------------------------------|
B|-------------------------------------7--8--7---------|
G|-------------------------------------7--7--7---------|
D|-----------------------------------------------------|
A|-----------------------------------------------------|
E|-5--5—5--5--5--5-7--7--5-5--5--5--7------------------|#/32t2##/32t1#

 Em
My life

Your life
        Bm
Don't cross them lines
      Em
What you like

What I like
              Bm
Why can't we both be right?
   Em
Attacking

Defending
               Bm
Until there's nothing left

Worth winning
 Em
Your pride

And my pride
Bm
   Don't waste my time


[Primeiro Refrão]

(Guitarra 1)

Parte 1 de 4
  P.M.  .  .  .  . .  .  . .  .  .  .  . .  .
#33t1##33t2#E|-----------------------------------------------------|
B|-----------------------------------------------------|
G|-----------------------------------------------------|
D|-----------------------------------------------------|
A|-9-9--9--9--9--7-7--7--9-9--9--9--9--7-7--7----------|
E|-----------------------------------------------------|#/33t2##/33t1#

Parte 2 de 4
  P.M.  .  .  .  . .  .  . .  .  .  .  . .  .
#34t1##34t2#E|-----------------------------------------------------|
B|-----------------------------------------------------|
G|-----------------------------------------------------|
D|-----------------------------------------------------|
A|-5-5--5--5--5----------5-5--5--5--5------------------|
E|---------------7-7--7----------------7-7--7----------|#/34t2##/34t1#

Parte 3 de 4
  P.M.  .  .  .  . .  .  . .  .  .  .  . .  .
#35t1##35t2#E|-----------------------------------------------------|
B|-----------------------------------------------------|
G|-----------------------------------------------------|
D|-----------------------------------------------------|
A|-9-9--9--9--9--7-7--7--9-9--9--9--9--7-7--7----------|
E|-----------------------------------------------------|#/35t2##/35t1#

Parte 4 de 4
  P.M.  .  .  .  . .  .  . .  .  .  .  . .  .
#36t1##36t2#E|-----------------------------------------------------|
B|-----------------------------------------------------|
G|-----------------------------------------------------|
D|-----------------------------------------------------|
A|-5-5--5--5--5----------5-5--5--5--5------------------|
E|---------------7-7--7----------------7-7--7----------|#/36t2##/36t1#


(Guitarra 2)

#37t1#Parte 1 de 4
   Em
#37t2#E|-7--------14----14--15--14\---------------|
B|-8----12--15----15------14\---------------|
G|-9----12--16------------------------------|
D|-9----14----------------------------------|
A|-7----------------------------------------|
E|------------------------------------------|#/37t2##/37t1#

#38t1#Parte 2 de 4
   Bm
#38t2#E|-7----------------------------------------|
B|-7----7--------------x-7------------------|
G|-7----7---------7----x-7------------------|
D|-9----9---------9------9------------------|
A|---------9------9-------------------------|
E|------------10--7-------------------------|#/38t2##/38t1#

#39t1#Parte 3 de 4
   Em
#39t2#E|-7----9--9--------------------------------|
B|-8----8--8--------------------------------|
G|-9----9--9--------------------------------|
D|-9----------------------------------------|
A|-7----------------------------------------|
E|------------------------------------------|#/39t2##/39t1#

#40t1#Parte 4 de 4
   Bm
#40t2#E|-7----------------------------------------|
B|-7----------------------------------------|
G|-7----------------------------------------|
D|-9----------------------------------------|
A|-9----------------------------------------|
E|-7----------------------------------------|#/40t2##/40t1#

   Em
I don't wanna fight no more

I don't wanna fight no more
   Bm
I don't wanna fight no more

I don't wanna fight no more
   Em
I don't wanna fight no more
                            Bm
I don't wanna fight no more


[Segunda Parte]

(Guitarra 1)

#41t1#Parte 1 de 4
   Em
#41t2#E|-----------7---------------7--------------|
B|-8/10-8----8----8/10--8----8--------------|
G|-9/11-9----9----9/11--9----9--------------|
D|-----------9---------------9--------------|
A|-----------7---------------7--------------|
E|------------------------------------------|#/41t2##/41t1#

#42t1#Parte 2 de 4
   Bm
#42t2#E|-----------7---------------7--------------|
B|-7h8--7----7----7h8---7----7--------------|
G|-7h9--7----7----7h9---7----7--------------|
D|-----------9---------------9--------------|
A|------------------------------------------|
E|------------------------------------------|#/42t2##/42t1#

#43t1#Parte 3 de 4
   Em
#43t2#E|-----------7---------------7--------------|
B|-8/10-8----8----8/10--8----8--------------|
G|-9/11-9----9----9/11--9----9--------------|
D|-----------9---------------9--------------|
A|-----------7---------------7--------------|
E|------------------------------------------|#/43t2##/43t1#

#44t1#Parte 4 de 4
   Bm
#44t2#E|-----------7---------------7--------------|
B|-7h8--7----7----7h8---7----7--------------|
G|-7h9--7----7----7h9---7----7--------------|
D|-----------9---------------9--------------|
A|------------------------------------------|
E|------------------------------------------|#/44t2##/44t1#


(Guitarra 2)

Parte 1 de 4
  P.M.  .  .  .  . .  .  . .  .  .  .  . .  .
#45t1##45t2#E|-----------------------------------------------------|
B|-----------------------------------------------------|
G|-----------------------------------------------------|
D|-----------------------------------------------------|
A|-----------------------------------------------------|
E|-5-5--5--5--5--5-7--7--5-5--5--5--5--5-7--7----------|#/45t2##/45t1#

Parte 2 de 4
  P.M.  .  .  .  . .  .  . .  .  .  .  . .  .
#46t1##46t2#E|-----------------------------------------------------|
B|-----------------------------------------------------|
G|-----------------------------------------------------|
D|-----------------------------------------------------|
A|-----------------------------------------------------|
E|-5-5--5--5--5--5-7--7--5-5--5--5--5--5-7--7----------|#/46t2##/46t1#

Parte 3 de 4
  P.M.  .  .  .  . .  .  . .  .  .  .  . .  .
#47t1##47t2#E|-----------------------------------------------------|
B|-----------------------------------------------------|
G|-----------------------------------------------------|
D|-----------------------------------------------------|
A|-----------------------------------------------------|
E|-5-5--5--5--5--5-7--7--5-5--5--5--5--5-7--7----------|#/47t2##/47t1#

Parte 4 de 4
  P.M.  .  .  .  . .  .  . .  .  .  .
#48t1##48t2#E|---------------------------------------7\------------|
B|---------------------------------------8\------------|
G|---------------------------------------9\------------|
D|---------------------------------------9\------------|
A|---------------------------------------7\------------|
E|-5-5--5--5--5--5-7--7--5-5--5--5--5------------------|#/48t2##/48t1#

           Em
Take from my hand

Put in your hands
              Bm
The fruit of all my grief
 Em
Lying down ain't easy

When everyone is pleasing
   Bm
I can't get no relief


(Guitarra 1)

#49t1#Parte 1 de 4
   Em
#49t2#E|-----------7---------------7--------------|
B|-8/10-8----8----8/10--8----8--------------|
G|-9/11-9----9----9/11--9----9--------------|
D|-----------9---------------9--------------|
A|-----------7---------------7--------------|
E|------------------------------------------|#/49t2##/49t1#

#50t1#Parte 2 de 4
   Bm
#50t2#E|-----------7---------------7--------------|
B|-7h8--7----7----7h8---7----7--------------|
G|-7h9--7----7----7h9---7----7--------------|
D|-----------9---------------9--------------|
A|------------------------------------------|
E|------------------------------------------|#/50t2##/50t1#

#51t1#Parte 3 de 4
   Em
#51t2#E|-----------7---------------7--------------|
B|-8/10-8----8----8/10--8----8--------------|
G|-9/11-9----9----9/11--9----9--------------|
D|-----------9---------------9--------------|
A|-----------7---------------7--------------|
E|------------------------------------------|#/51t2##/51t1#

#52t1#Parte 4 de 4
   Bm
#52t2#E|-----------7-------------------14---------|
B|-7h8--7----7----7h8---7--------15---------|
G|-7h9--7----7----7h9---7----9/-------------|
D|-----------9---------------9/-------------|
A|------------------------------------------|
E|------------------------------------------|#/52t2##/52t1#


(Guitarra 2)

#53t1#Parte 1 de 4
   Em
#53t2#E|-0----------------------------------------|
B|-0----------------------------------------|
G|-0----------------------------------------|
D|-2----------------------------------------|
A|-2----------------------------------------|
E|-0----------------------------------------|#/53t2##/53t1#

#54t1#Parte 2 de 4
       Bm
#54t2#E|-0---7------------------------------------|
B|-0---7------------------------------------|
G|-0---7------------------------------------|
D|-----9------------------------------------|
A|-----9------------------------------------|
E|-----7------------------------------------|#/54t2##/54t1#

#55t1#Parte 3 de 4
       Em
#55t2#E|-7\--0------------------------------------|
B|-7\--0------------------------------------|
G|-7\--0------------------------------------|
D|-9\--2------------------------------------|
A|-9\--2------------------------------------|
E|-7\--0------------------------------------|#/55t2##/55t1#

#56t1#Parte 4 de 4
       Bm
#56t2#E|-0---7----------------7\6/7--7------7-----|
B|-0---7----------------7\6/7--7------7-----|
G|-0---7-----------------------7------7-----|
D|-----9---------------------------9--------|
A|-----9--------------------------10--------|
E|-----7------------------------------------|#/56t2##/56t1#

 Em
Living ain't no fun

The constant dedication
             Bm
Keeping the water and power on
Em
   There ain't nobody left

Why can't I catch my breath?
           Bm
I'm gonna work myself to death


[Segundo Refrão]

#57t1#Parte 1 de 4
   Em
#57t2#E|-7--------14----14--15--14\---------------|
B|-8----12--15----15------14\---------------|
G|-9----12--16------------------------------|
D|-9----14----------------------------------|
A|-7----------------------------------------|
E|------------------------------------------|#/57t2##/57t1#

#58t1#Parte 2 de 4
   Bm
#58t2#E|-7----------------------------------------|
B|-7----7--------------7-7------------------|
G|-7----7---------7----9-7------------------|
D|-9----9---------9------9------------------|
A|---------9------9-------------------------|
E|------------10--7-------------------------|#/58t2##/58t1#

#59t1#Parte 3 de 4
   Em
#59t2#E|-7----9--9--------------------------------|
B|-8----8--8--------------------------------|
G|-9----9--9--------------------------------|
D|-9----------------------------------------|
A|-7----------------------------------------|
E|------------------------------------------|#/59t2##/59t1#

#60t1#Parte 4 de 4
   Bm
#60t2#E|-7----------------------------------------|
B|-7----------------------------------------|
G|-7----------------------------------------|
D|-9----------------------------------------|
A|-9----------------------------------------|
E|-7----------------------------------------|#/60t2##/60t1#


(Guitarra 2)

#61t1#Parte 1 de 4
   Em7
#61t2#E|-----------------------------------------------------|
B|-----------------------------------------------------|
G|-----------------------------------------------------|
D|-----------------------------------------------------|
A|-9-9--9--9--9--7-7--7--9-9--9--9--9--7-7--7----------|
E|-----------------------------------------------------|#/61t2##/61t1#

#62t1#Parte 2 de 4
   Bm
#62t2#E|-----------------------------------------------------|
B|-----------------------------------------------------|
G|-----------------------------------------------------|
D|-----------------------------------------------------|
A|-5-5--5--5--5----------5-5--5--5--5------------------|
E|---------------7-7--7----------------7-7--7----------|#/62t2##/62t1#

#63t1#Parte 3 de 4
   Em7
#63t2#E|-----------------------------------------------------|
B|-----------------------------------------------------|
G|-----------------------------------------------------|
D|-----------------------------------------------------|
A|-9-9--9--9--9--7-7--7--9-9--9--9--9--7-7--7----------|
E|-----------------------------------------------------|#/63t2##/63t1#

#64t1#Parte 4 de 4
   Bm
#64t2#E|-----------------------------------------------------|
B|-----------------------------------------------------|
G|-----------------------------------------------------|
D|-----------------------------------------------------|
A|-5-5--5--5--5----------5-5--5--5--5------------------|
E|---------------7-7--7----------------7-7--7----------|#/64t2##/64t1#

   Em
I don't wanna fight no more

I don't wanna fight no more
   Bm
I don't wanna fight no more

I don't wanna fight no more
   Em
I don't wanna fight no more
                            Bm
I don't wanna fight no more


[Interlúdio]

(Guitarra 1)

Parte 1 de 2
  P.M.  .  .  .  . .  .  . .  .  .  .  . .  .
#65t1##65t2#E|-----------------------------------------------------|
B|-----------------------------------------------------|
G|-----------------------------------------------------|
D|-----------------------------------------------------|
A|-9-9--9--9--9--7-7--7--9-9--9--9--9--7-7--7----------|
E|-----------------------------------------------------|#/65t2##/65t1#

Parte 2 de 2
  P.M.  .  .  .  . .  .  . .  .  .  .  . .  .
#66t1##66t2#E|-----------------------------------------------------|
B|-----------------------------------------------------|
G|-----------------------------------------------------|
D|-----------------------------------------------------|
A|-5-5--5--5--5----------5-5--5--5--5------------------|
E|---------------7-7--7----------------7-7--7----------|#/66t2##/66t1#


(Guitarra 2)

Parte 1 de 2
  P.M.  .  .  .  . .  .  . .  .  .  .  . .  .
#67t1##67t2#E|-----------------------------------------------------|
B|-----------------------------------------------------|
G|-----------------------------------------------------|
D|-----------------------------------------------------|
A|-----------------------------------------------------|
E|-5-5--5--5--5--5-7--7--5-5--5--5--5--5-7--7----------|#/67t2##/67t1#

Parte 2 de 2
  P.M.  .  .  .  . .  . . . .  . .  .  .  .
#68t1##68t2#E|-----------------------------------------------------|
B|-----------------------------------------------------|
G|-----------------------------------------------------|
D|-----------------------------------------------------|
A|----------------------5------------------------------|
E|-5-5--5--5--5--5-7--7---7-5--5-5--5--5--7------------|#/68t2##/68t1#


[Solo]

(Guitarra Solo 1)

#69t1#Parte 1 de 2
#69t2#E|-----------------------------------------------------|
B|--------12--14--15b17r-------------------------------|
G|-11h14-----------------------------------------------|
D|-----------------------------------------------------|
A|-----------------------------------------------------|
E|-----------------------------------------------------|#/69t2##/69t1#

#70t1#Parte 2 de 2
#70t2#E|-----------------------------------------------------|
B|--------12--14---------------------------------------|
G|-11h14----------14b16r-------------------------------|
D|-----------------------------------------------------|
A|-----------------------------------------------------|
E|-----------------------------------------------------|#/70t2##/70t1#

(Guitarra Solo 2)

#71t1#Parte 1 de 2
#71t2#E|-----------------------------------------------------|
B|-----------------------------------------------------|
G|---------7--9b11r------------------------------------|
D|------9----------------------------------------------|
A|-7h9-------------------------------------------------|
E|-----------------------------------------------------|#/71t2##/71t1#

#72t1#Parte 2 de 2
#72t2#E|-----------------------------------------------------|
B|-----------------------------------------------------|
G|---------7--9b11r------------------------------------|
D|------9----------------------------------------------|
A|-7h9-------------------------------------------------|
E|-----------------------------------------------------|#/72t2##/72t1#


[Refrão Final]

   Em
I don't wanna fight no more

I don't wanna fight no more
   Bm
I don't wanna fight no more

I don't wanna fight no more
   Em
I don't wanna fight no more

I don't wanna fight no more
   Bm
I don't wanna fight no more

I don't wanna fight, I don't wanna fight
   Em
I don't wanna fight no more

I don't wanna fight no more
   Bm
I don't wanna fight no more

I don't wanna fight no more
   Em
I don't wanna fight no more

I don't wanna fight no more
   Bm
I don't wanna fight no more

I don't wanna fight no more
Composición: Brittany HowardColaboración y revisión: Vinícius DiasLuiz Guerra
videoclase DON'T WANNA FIGHT (aula de guitarra)