Someone Like You

Adele

Am
123
X02210
C
123
X32010
C7+
12
X3200X
D
123
XX0232
D9/F#
123
2X0230
Em
12
022000
Em7
123
022030
G
123
320003
G/B
123
X20033
G/F#
1234
XX4433
Tono: G
[Intro]

#1t1#       G
#1t2#E|-------0--------0--------0--------0------|
B|-----2---2----2---2----2---2----2---2----|
G|---2--------2------- 2--------2----------|
D|-----------------------------------------|
A|-----------------------------------------|
E|-----------------------------------------|#/1t2##/1t1#

#2t1#       G/F#
#2t2#E|-------0--------0--------0--------0------|
B|-----0---0----0---0----0---0----0---0----|
G|---1--------1--------1--------1----------|
D|-----------------------------------------|
A|-----------------------------------------|
E|-----------------------------------------|#/2t2##/2t1#


#3t1#       Em
#3t2#E|-------2--------2--------2--------2------|
B|-----2---2----2---2----2---2----2---2----|
G|---2--------2--------2--------2----------|
D|-----------------------------------------|
A|-----------------------------------------|
E|-----------------------------------------|#/3t2##/3t1#

#4t1#       C7+
#4t2#E|-------2--------2--------2--------2------|
B|-----3---3----3---3----3---3----3---3----|
G|---2--------2--------2--------2----------|
D|-----------------------------------------|
A|-----------------------------------------|
E|-----------------------------------------|#/4t2##/4t1#

[Pré-Refrão]

#5t1#       D9/F#            Em7
#5t2#E|-------0--------0--------0--------0------|
B|-----2---2----2---2----0---0----0---0----|
G|---2--------2--------1--------1----------|
D|-----------------------------------------|
A|-----------------------------------------|
E|-----------------------------------------|#/5t2##/5t1#

#6t1#       C                C
#6t2#E|-------2--------2--------2--------2------|
B|-----2---2----2---2----3---3----3---3----|
G|---2--------2--------2--------2----------|
D|-----------------------------------------|
A|-----------------------------------------|
E|-----------------------------------------|#/6t2##/6t1#

#7t1#       D9/F#            Em
#7t2#E|-------0--------0--------0--------0------|
B|-----2---2----2---2----0---0----0---0----|
G|---2--------2--------1--------1----------|
D|-----------------------------------------|
A|-----------------------------------------|
E|-----------------------------------------|#/7t2##/7t1#

#8t1#       C               C7+
#8t2#E|-------2--------2--------2--------2------|
B|-----2---2----2---2----3---3----3---3----|
G|---2--------2--------2--------2----------|
D|-----------------------------------------|
A|-----------------------------------------|
E|-----------------------------------------|#/8t2##/8t1#

#9t1#       C
#9t2#E|-------2---------------------------------|
B|-----3-----------------------------------|
G|---2-------------------------------------|
D|-----------------------------------------|
A|-----------------------------------------|
E|-----------------------------------------|#/9t2##/9t1#

[Refrão]

#10t1#       G                D
#10t2#E|-------0--------0--------0--------0------|
B|-----2---2----2---2----0---0----0---0----|
G|---2--------2--------1--------1----------|
D|-----------------------------------------|
A|-----------------------------------------|
E|-----------------------------------------|#/10t2##/10t1#

#11t1#       Em             C
#11t2#E|-------2--------2--------2--------2------|
B|-----2---2----2---2----3---3----3---3----|
G|---2--------2--------2--------2----------|
D|-----------------------------------------|
A|-----------------------------------------|
E|-----------------------------------------|#/11t2##/11t1#

[Primeira Parte]

G                 G/F#
I heard that you´re settled down
        Em
That you found a girl
         C
And you´re married now

   G             G/F#
I heard that your dreams came true
         Em
Guess she gave you things
        C
I didn´t give to you

      G                     G/F#
Old friend why are you so shy
        Em
It ain´t like you to hold back
  C
Or hide from the light

[Pré-Refrão]

   D9/F#                       Em               C
I hate to turn up out of the blue uninvited but

I couldn´t stay away I couldn´t fight it
     D9/F#
I´d hoped you´d see my face
      Em                             C          C7+   C
And that you´d be reminded that for me it isn´t over

[Refrão]

G           D                  Em   C
 Never mind I'll find someone like you
        G               D        Em  C
I wish nothing but the best for you too
       G           D       Em         C
Don´t forget me I beg I remember you said
              G                 D                     Em   C
Sometimes it lasts in love but sometimes it hurts instead
              G                 D                     Em    C
Sometimes it lasts in love but sometimes it hurts instead, yeah

[Segunda Parte]

G                G/F#
 You´d know how time flies
    Em
Only yesterday
       C
was the time of our lives

       G
We were born and raised
    G/F#
In a summer haze
       Em                      C
Bound by the surprise of our glory days

[Pré-Refrão]

   D9/F#                       Em               C
I hate to turn up out of the blue uninvited but

I couldn´t stay away I couldn´t fight it
     D9/F#
I´d hoped you´d see my face
      Em                           C            C7+   C
And that you´d be reminded that for me it isn´t over

[Refrão]

G            D                   Em  C
Every night I find someone like you
        G               D        Em  C
I wish nothing but the best for you too
     G             D        Em         C
Don´t forget me I beg I re-member you said
              G                 D                      Em     C
Sometimes it lasts in love but sometimes it hurts in-stead, yeah

[Ponte]

 D9/F#
Nothing compares no worries or cares
 Em7
Regrets and mistakes their memories make
  C7+
Who would have known how
         Am    G/B       C
Bitter-sweet this would taste

[Refrão]

 G             D                   Em  C
Never mind I'll find someone like you
        G               D        Em  C
I wish nothing but the best for you too
       G           D        Em         C
Don´t forget me I beg I re-member you said
              G                 D                      Em   C
Sometimes it lasts in love but sometimes it hurts in-stead

 G              D                  Em  C
Never mind I'll find someone like you
       G               D        Em  C
I wish nothing but the best for you too
      G           D        Em         C
Don´t forget me I beg I re-member you said
             G                 D                     Em     C
Sometimes it lasts in love but sometimes it hurts in-stead
             G                 D                     Em     C
Sometimes it lasts in love but sometimes it hurts in-stead
             G                 D                     Em     C
Sometimes it lasts in love but sometimes it hurts instead

Yeah Yeah
Composición: Adele Adkins / Dan WilsonColaboración y revisión: Getúlio VasconcelosGabrielIgor ReisAryel Hidekyy más 2