Someone Like You

Adele

A
123
X02220
Bm
234
X24432
Bm7(11)
123
X20230
C#m/G#
1234
XX6654
C#m7(5+)
1234
X4X455
D
123
XX0232
D4+
234
X56775
D5
134
X577XX
D5(9)
134
X579XX
D9(4+)
34
X56755
E
123
022100
F#m
34
244222
F#m7(11)
123
2X220X
F#m7/C#
3
X42222
Tono: G
[Intro] A  C#m/G#  F#m D


   A
E|-----0--------0---------0-------
B|-------2--------2---------2-----
G|---2--------2---------2---------
D|--------------------------------
A|-0--------0---------0---------0-
E|--------------------------------

E|--0-----------------| 
B|----2---------------| 
G|2-------------------| 
D|--------------------| 
A|--------------------| 
E|--------------------| 



   C#m/G#
E|-------------------------------
B|-----5---------5---------5-----
G|-------6---------6---------6---
D|---6---------6---------6-------
A|-------------------------------
E|-4---------4---------4---------

E|---------------------| 
B|----5----------------| 
G|------6--------------| 
D|--6------------------| 
A|---------------------| 
E|4--------------------| 



   F#m
E|-----2---------2---------2-----
B|-------2---------2---------2---
G|---2---------2---------2-------
D|-------------------------------
A|-------------------------------
E|-2---------2---------2---------

E|----2----------------| 
B|---------------------| 
G|--2---2--------------| 
D|---------------------| 
A|---------------------| 
E|2--------------------| 



   D
E|-----2---------2---------2-----
B|-------3---------3---------3---
G|---2---------2---------2-------
D|-0---------0---------0---------
A|-------------------------------
E|-------------------------------

E|----2----------------| 
B|------3--------------| 
G|--2------------------| 
D|0--------------------| 
A|---------------------| 
E|---------------------| 


      A              C#m/G#
I've heard that you're settled down
       F#m
That you found a girl
           D
And you're   married now

A                       C#m/G#
 I've heard that your dreams came 
true
           F#m
Guess she gave you things
          D
I didn't give to you

A                       C#m/G#
Old friend why are you so shy?
            F#m
Ain't like you to hold back
    D
Or hide from life

[Pré-refrão]

[Parte 1 de 4]


   E                    F#m7(11)
E|-----0---------0----------0-----
B|-------0---------0----------0---
G|---1---------1----------2-------
D|--------------------------------
A|--------------------------------
E|-0--------0-----------2---------

E|-----0--------------| 
B|-------0------------| 
G|---2----------------| 
D|--------------------| 
A|--------------------| 
E|-2------------------| 


[Parte 2 de 4]


    D
E|--------------------------------
B|------3-----------3-----------3-
G|----2---2-------2---2-------2---
D|--0-----------0-----------0-----
A|--------------------------------
E|--------------------------------

E|--------------------| 
B|----------3---------| 
G|2-------2---2-------| 
D|------0-------------| 
A|--------------------| 
E|--------------------| 


[Parte 1 de 4]


   E                    F#m7(11)
E|-----0---------0----------0-----
B|-------0---------0----------0---
G|---1---------1----------2-------
D|--------------------------------
A|--------------------------------
E|-0--------0-----------2---------

E|-----0--------------| 
B|-------0------------| 
G|---2----------------| 
D|--------------------| 
A|--------------------| 
E|-2------------------| 


[Parte 3 de 4]


   D                    D9(4+)
E|-----2---------2----------0-----
B|-------3---------3----------3---
G|---2---------2----------1-------
D|-0--------0-----------0---------
A|--------------------------------
E|--------------------------------

E|----0---------------| 
B|------0-------------| 
G|--1-----------------| 
D|0-------------------| 
A|--------------------| 
E|--------------------| 


[Parte 4 de 4]


   D
E|-----2---------2----------------
B|-------3---------3--------------
G|---2---------2------------------
D|-0---------0--------------------
A|--------------------------------
E|--------------------------------


   E                           
I hate to turn up out of the 
F#m7(11)
blue uninvited but
D5(9)
I couldn't stay away I couldn't 
fight it
     E
I'd hoped you'd see my face
F#m7(11) And that you'd be reminded that for D me D9(4+) D It isn't ove___r [Refrão] A E E|-----0------------0-----------0- B|-------2-------------2---------- G|---2-----------2------------1--- D|-------------------------------- A|-0----------0------------------- E|--------------------------0----- E|---------0----------| B|0----------0--------| G|-------1------------| D|--------------------| A|--------------------| E|-----0--------------| F#m D E|------2----------2------------2- B|--------2----------2------------ G|----2----------2------------2--- D|--------------------------0----- A|-------------------------------- E|-2-----------2------------------ E|-----------2--------| B|3-------------3-----| G|--------2-----------| D|----0---------------| A|--------------------| E|--------------------| A E Never mind I'll find someone F#m D like you A E I wish nothing but the best for F#m D you too A E F#m Don't forget me I beg I'll D remember you said A Sometimes it lasts in love but E sometimes F#m D It hurts instead A Sometimes it lasts in love but E sometimes F#m D It hurts instead [Segunda Parte] A C#m/G# You'd know how time flies F#m Only yesterday D was the time of our lives A We were born and raised C#m/G# In a summer haze F#m D Bound by the surprise of our glory days [Pré-refrão] E I hate to turn up out of the F#m7(11) blue uninvited but D5(9) I couldn't stay away I couldn't fight it E I'd hoped you'd see my face F#m7(11) And that you'd be reminded that for D me D9(4+) D D4+ It isn't ove____r [Refrão] A E Never mind I'll find someone F#m D like you A E I wish nothing but the best for F#m D you too A E F#m Don't forget me I beg I'll D remember you said A Sometimes it lasts in love but E sometimes F#m D It hurts instead [Terceira Parte] Bm7(11) E|-----0----------0----------0---- B|-------3----------3----------3-- G|---2----------2----------2------ D|-------------------------------- A|-2----------2----------2-------- E|-------------------------------- E|-------0------------| B|---------3----------| G|-----2--------------| D|--------------------| A|---2----------------| E|--------------------| F#m7/C# E|-----2---------2----------2----- B|-------2---------2----------2--- G|---2---------2----------2------- D|-------------------------------- A|-4---------4----------4--------- E|-------------------------------- E|----2---------------| B|------2-------------| G|--2-----------------| D|--------------------| A|4-------------------| E|--------------------| D5 E|-----5---------5----------5----- B|-------3---------3----------3--- G|---2---------2----------2------- D|-------------------------------- A|-2---------2----------2--------- E|-------------------------------- E|----5---------------| B|------3-------------| G|--2-----------------| D|--------------------| A|2-------------------| E|--------------------| Bm C#m7(5+) E|-----7---------7-----------5---- B|-------7---------7-----------5-- G|---7---------7-----------4------ D|-------------------------------- A|-----------------------4-------- E|-7--------7--------------------- E|----5---------------| B|------5-------------| G|--4-----------------| D|--------------------| A|-4------------------| E|--------------------| D E|-----0--------0----------0------ B|-------3--------3----------3---- G|---2--------2----------2-------- D|-------------------------------- A|-2--------2----------2---------- E|-------------------------------- E|----0---------------| B|------3-------------| G|--2-----------------| D|--------------------| A|2-------------------| E|--------------------| Bm7(11) Nothing compares no worries or cares F#m7/C# Regrets and mistakes their memories make D5 Who would have known how Bm C#m7(5+) D Bitter-sweet this would taste [Refrão] A E Never mind I'll find someone F#m D like you A E I wish nothing but the best for F#m D you too A E F#m Don't forget me I beg I'll D remember you said A Sometimes it lasts in love but E sometimes F#m D It hurts instead A E Never mind I'll find someone F#m D like you A E I wish nothing but the best for F#m D you too A E F#m Don't forget me I beg I'll D remember you said A Sometimes it lasts in love but E sometimes F#m D It hurts instead
Composición: Adele Adkins / Dan WilsonColaboración y revisión: Getúlio VasconcelosRafael FelipiaquiJosenilton GomesbarbosaHeitor Gartnery más 9
videoclase Someone Like You (aula de violão)

Utilizamos cookies e outras tecnologias semelhantes para melhorar e personalizar sua experiência de uso. Ao navegar nos produtos, você concorda com as condições descritas em nossa Política de Privacidade.